PrimaNota.ru - самый крупный в мире бесплатный архив песенных текстов, аккордов, табулатур и нот


Donots - Dead Man Walking - таба, бас-таба, видео

Регистрация Запомнить меня
Войти через:  Facebook Google Twitter Vk Yandex Mail.ru

Donots - Dead Man Walking - таба, бас-таба, видео

Печатать
Просмотров: 224
Уроки эстрадного вокала в Санкт-Петербурге
Авторы музыки: Donots

Title: Dead Man Walkig
Band:  Donots
Album: The Long Way Home (2010)


The verse and chorus chords are right! I'm sure about 'cause I asked the guitarist 
for it.
I hope the other stuff is ok, too... it's sounds right for me but you have to listen to 
song by yourself to get the correct timig.

Have fun!


Intro: H D G E A
                                               2x
D#|----------------------|----------------------|-----|
A#|o-12b14b14------------|-12b14b14------------o|-----|
F#|-----------11-14-11---|----------11-14-11-9--|-11~-|
C#|----------------------|----------------------|-----|
G#|o---------------------|---------------------o|-----|
D#|----------------------|----------------------|-----|


only bass
             H                D
I'm breaking up, ain't coming home
          G                          E
cause the same shit every day really got
   A
me down


/w guitar

        H                     D
another place, not sure which town
G                                   E      A
I don't need your advice, I like it on my own

Guitar 2:
    H       D  G   E          A
D#|---------------------------------------|
A#|-14--14--14/12-12/15-15-15-15/17-17-17-|
F#|-13--13--13----------------------------|
C#|---------------------------------------|
G#|---------------------------------------|
D#|---------------------------------------|
                   I'm never coming home


E                     G
I know that you never thought that I could
               D
break down the walls
          A
I'm never looking back, no!
E                     G
I know that you never thought that I could
               A
break down the walls

watch me now!


Guitar 2 during chorus:

    E   G      D      A     E   G          A
D#|-----------------------|--------------------------------------------------|
A#|-19--17-19--17-19--17~-|-19--17-19--17-----15------15-------15------15----|
F#|-----------------------|----------------16---16-16----16-16---16-16----16-|
C#|-----------------------|--------------------------------------------------|
G#|-----------------------|--------------------------------------------------|
D#|-----------------------|--------------------------------------------------|


Intro: H D G E A
                                               2x
D#|----------------------|----------------------|-----|
A#|o-12b14b14------------|-12b14b14------------o|-----|
F#|-----------11-14-11---|----------11-14-11-9--|-11~-|
C#|----------------------|----------------------|-----|
G#|o---------------------|---------------------o|-----|
D#|----------------------|----------------------|-----|

only bass
             H               D
I'm breaking up, show me the door
     G                       E        A
just let me pick my teeth up from the floor
        H                    D
burn my remains and bless my bones
G                            E          A
sell the memories cause everything must go


/w guitar
             H
cause he's a dead man walking
  D
a dead man talking
  G                E      A
a dead man getting in the zone

Guitar 2:
    H       D  G   E          A
D#|---------------------------------------|
A#|-14--14--14/12-12/15-15-15-15/17-17-17-|
F#|-13--13--13----------------------------|
C#|---------------------------------------|
G#|---------------------------------------|
D#|---------------------------------------|
                   I'm never coming home

E                     G
I know that you never thought that I could
               D
break down the walls
          A
I'm never looking back, no!
E                     G
I know that you never thought that I could
               A
break down the walls

watch me now!


Guitar 2 during chorus:

    E   G      D      A     E   G          A
D#|-----------------------|--------------------------------------------------|
A#|-19--17-19--17-19--17~-|-19--17-19--17-----15------15-------15------15----|
F#|-----------------------|----------------16---16-16----16-16---16-16----16-|
C#|-----------------------|--------------------------------------------------|
G#|-----------------------|--------------------------------------------------|
D#|-----------------------|--------------------------------------------------|


Intro: H D G E A
                                               2x
D#|----------------------|----------------------|-----|
A#|o-12b14b14------------|-12b14b14------------o|-----|
F#|-----------11-14-11---|----------11-14-11-9--|-11~-|
C#|----------------------|----------------------|-----|
G#|o---------------------|---------------------o|-----|
D#|----------------------|----------------------|-----|


bass interlude

H

H D G E A


    H   D     G  E A
D#|--------------------|
A#|-14~-14/12-14-14/12-|
F#|--------------------|
C#|--------------------|
G#|--------------------|
D#|--------------------|


E                     G
I know that you never thought that I could
               D
break down the walls
          A
I'm never looking back, no!
E                     G
I know that you never thought that I could
               A
break down the walls

watch me now!

       E G D   E    G        A
D#|--------------------------------------------------------------------------|
A#|12~-14~-14/12----12-14-14/12-12-12-12-12-12-12-12-12/17-17-17-17-17-17-17-|
F#|--------------------------------------------------------------------------|
C#|--------------------------------------------------------------------------|
G#|--------------------------------------------------------------------------|
D#|--------------------------------------------------------------------------|


Intro: H D G E A

D#|----------------------|----------------------|
A#|o-12b14b14------------|-12b14b14------------o|
F#|-----------11-14-11---|----------11-14-11-9--|
C#|----------------------|----------------------|
G#|o---------------------|---------------------o|
D#|----------------------|----------------------|

H                 D
  all it takes is patience
G                 E        A
  all it takes is patience now
H                 D
  all it takes is patience
G                 E        A
  all it takes is patience now


D#|----------------------------|
A#|----------------------------|
F#|-------2--------------------|
C#|-4-----0--2--4--------2--4--|
G#|-2--2-----0--2--2--5--0--2--|
D#|----0-----------0--3--------|
Добавлено: 28.05.2012
Другие материалы по этой песне:
  • Аккорды и текст

Страница создана 30.04.2012
http://primanota.ru/donots/dead-man-walking-chords.htm
Привет, Гость.
Предлагаем пройти революционный курс по гитаре.
Подарок от PrimaNota.Ru, забирай!