PrimaNota.ru - самый крупный в мире бесплатный архив песенных текстов, аккордов, табулатур и нот


Donots - Come Away With Me - таба, видео

Регистрация Запомнить меня
Войти через:  Facebook Google Twitter Vk Yandex Mail.ru

Donots - Come Away With Me - таба, видео

Печатать
Просмотров: 126
Standard Tuning

Intro:

-----------------|
---------10------|
------9------9---|  4x
---7-------------|
-----------------|
-----------------|


Strophen:

----------------- ---------------- ---------------- ----------------|
---------10------ --------10------ --------10------ --------5-------|
------9------9--- -----9------9--- -----9------9--- ----------------|   2x
---7------------- ---6------------ ---------------- -----7------7---|
----------------- ---------------- ---9------------ ---5------------|
----------------- ---------------- ---------------- ----------------|


----------------- --------7------- ---------------- ----------------|
---------10------ ---------------- ---------------- ----------------|
------9------9--- -----9------9--- ---------7------ ---------7------|
---7------------- ---6------------ ------7-----7--- ------7-----7---|
----------------- ---------------- ---5------------ ---5------------|
----------------- ---------------- ---------------- ----------------|


Refrain:

[fis] [D] [E] [D]

 -5-  -3- -0- -3-|        [fis]                   [D]
 -7-  -2- -0- -2-|   Come away with me, while the worlds 's asleep,
 -6-  -3- -1- -3-|
 -4-  -0- -2- -0-|             [E]                          [D]
 ---  --- -2- ---|   Walk from sea to shining sea, find ourselves a place...
 ---  --- -0- ---|

Riff:

-------------------------|
-14-14-14----------------|
----------13-13-14-14-13-|
-------------------------|
-------------------------|
-------------------------|
Добавлено: 15.10.2013
Другие материалы по этой песне:
  • Аккорды и текст

Страница создана 15.10.2013
http://primanota.ru/donots/come-away-with-me-chords.htm
Привет, Гость.
Предлагаем пройти революционный курс по гитаре.
Подарок от PrimaNota.Ru, забирай!