PrimaNota.ru - самый крупный в мире бесплатный архив песенных текстов, аккордов, табулатур и нот


Donots - Big Mouth - текст песни, таба, видео

Регистрация Запомнить меня
Войти через:  Facebook Google Twitter Vk Yandex Mail.ru

Donots - Big Mouth - текст песни, таба, видео

Печатать
Просмотров: 173
Sorry for my english but I'm from Croatia. If you have something to say or to corect my
tab,mail me on Vllajec1@net.hr

Donots
Big Mouth
Tab by Vlajec(Ivan Vlajcevic)

_______________________________________________________________________________________
Intro
e-|---------|---------|
B-|---------|---------|
G-|---------|---------|
D-|---------|--8-8-8--|
A-|--8-8-8--|--6-6-6--|
E-|--6-6-6--|---------|

Chourse 2X
e-|-----------|-----------|-----------|-----------|
B-|-----------|-----------|-----------|-----------|
G-|--8-8-8-8--|-----------|--8-8-8-8--|-----------|
D-|--8-8-8-8--|--8-8-8-8--|--8-8-8-8--|--8-8-8-8--|
A-|--6-6-6-6--|--8-8-8-8--|--6-6-6-6--|--8-8-8-8--|
E-|-----------|--6-6-6-6--|-----------|--6-6-6-6--|
                                                                              

e-|---------------|-----------|---------------|-----------|
B-|---------------|-----------|---------------|-----------|
G-|--10-10-10-10--|-----------|--10-10-10-10--|-----------|
D-|--10-10-10-10--|--8-8-8-8--|--10-10-10-10--|--8-8-8-8--|
A-|--8--8--8--8---|--8-8-8-8--|--8--8--8--8---|--8-8-8-8--|
E-|---------------|--6-6-6-6--|---------------|--6-6-6-6--|

Verse
e-|-----------|-----------| *not shure how many times
B-|-----------|-----------|
G-|--6-6-6-8--|--8-8-8-6--|
D-|--6-6-6-8--|--8-8-8-6--|
A-|--6-6-6-6--|--6-6-6-6--|
E-|-----------|-----------|

and then
e-|---------------|
B-|---------------|
G-|--8-8-8-8-5----|
D-|------------8--|
A-|---------------|
E-|---------------|

Chourse(same as first one)

Breakdown
e-|---------------|-----------|-------------------------|  2X
B-|---------------|-----------|-------------------------|
G-|---------------|-----------|--10--8brbrb--19--8--12--|
D-|--10-10-10-10--|--8-8-8-8--|-------------------------|
A-|--7--7--7--7---|--6-6-6-6--|-------------------------|
E-|---------------|-----------|-------------------------|

e-|----------------|-------------------| 2X
B-|----8-6---------|----8-6------------|
G-|--5-----5-5-7-7-|--5-----5-5-7-5-3--|
D-|----------------|-------------------|
A-|----------------|-------------------|
E-|----------------|-------------------|

Chourse  2X
Brake (same as first)
Chourse  2X

I think that this is corect about 85%
mail me if you have anything to say
Добавлено: 06.07.2012
Другие материалы по этой песне:
  • Аккорды и текст

Страница создана 17.06.2012
http://primanota.ru/donots/big-mouth-chords.htm
Привет, Гость.
Предлагаем пройти революционный курс по гитаре.
Подарок от PrimaNota.Ru, забирай!