PrimaNota.ru - самый крупный в мире бесплатный архив песенных текстов, аккордов, табулатур и нот


Donny Iris - Ah Leah - таба, видео

Регистрация Запомнить меня
Войти через:  Facebook Google Twitter Vk Yandex Mail.ru

Donny Iris - Ah Leah - таба, видео

Печатать
Просмотров: 161
Уроки эстрадного вокала в Санкт-Петербурге
To: jamesb@nevada.edu
Date: Sat, 19 Mar 1994 11:50:28 +1100 (EST)
X-Mailer: ELM [version 2.4 PL23]
Mime-Version: 1.0
Content-Type: text/plain; charset=US-ASCII
Content-Transfer-Encoding: 7bit
Content-Length: 2078

Ah! Leah! - Donny Iris - transcribed by Gary Chapman
======================

Tune down a semitone.

Intro:

(D  F  C  G)  x 4


Verse 1:

C         G                D
Leah it's been a long long time you're such a sight, you're
lookin'   better than a    body has the right to.
Don't you know we're       playing with the fire, but
we can't  stop this        burning desire, Leah...


Chorus:

D     Am   C             G
Ah    Lee-aaah (here we go again)
Ah    Lee-aaah (is it   ever
gonna end ?)
Ah    Lee-aaah (here we go again)
Ah    Lee-aaah


Interlude:

F F  D D     C C  G G


Verse 2:

I see your lips and I wonder who's been kissin' them.
I never knew how badly I was missin' them.
We both know we're never gonna make it.
But when we touch we never have to fake it, Leah...

Chorus

Pre-solo:

F F  D D     D D  C C     C C  G G     G G  D D  (x 2)

(lots of ooohs and aaahs)


Solo:  (rhythm is  D  F  C  G)

E--------------------------------------------------------|
B--------------------------------------------------------|
G-12(b)14-12-10--12(b)14-----------12(b)14-12-10---------|
D------------------------------------------------12~~~\--|
A--------------------------------------------------------|
E--------------------------------------------------------|


E------13--------------13------------------------------15(b)17-15(b)17-15(b)17~-|
B-(15)----15(b)17~~~------15(b)17-15-------------15-15--------------------------|
G------------------------------------14~---(b)16--------------------------------|
D-------------------------------------------------------------------------------|
A-------------------------------------------------------------------------------|
E-------------------------------------------------------------------------------|


Verse 3:

Baby it's no good we're just asking for trouble.
I can touch you but I don't know how to love you.
It ain't no use, we're heading for disaster.
Our minds say no but our hearts are talkin' faster, Leah...

Chorus to fade

Mr.Scary (Gary Chapman)
-------------------------
scary@zikzak.apana.org.au
Добавлено: 17.05.2012
Другие материалы по этой песне:
  • Аккорды и текст

Страница создана 08.03.2012
http://primanota.ru/donny-iris/ah-leah-chords.htm
Привет, Гость.
Предлагаем пройти революционный курс по гитаре.
Подарок от PrimaNota.Ru, забирай!