PrimaNota.ru - самый крупный в мире бесплатный архив песенных текстов, аккордов, табулатур и нот


Donnie Trumpet And The Social Experiment - Pass The Vibes - аккорды и текст, видео

Регистрация Запомнить меня
Войти через:  Facebook Google Twitter Vk Yandex Mail.ru

Donnie Trumpet And The Social Experiment - Pass The Vibes - аккорды и текст, видео

Печатать
Просмотров: 142
Уроки эстрадного вокала в Санкт-Петербурге
Pass The Vibes
Donnie Trumpet And The Social Experiment
Guitar/Bass riff intro:

---------------------------------------------------------------------------------|
---------------------------------------------------------------------------------|
---------------------------------------------------------------------------------|
---------------------------------------------------------------------------------|
--2-2-2/-6-6-6-6/-7-7-7-7/--10-10-10/---2-2-2/-6-6-6-6/-7-7-7-7/--10-10-10-12-14-|
-3-3--3/-7--7--7/-8--8--8/--11---11----3-3--3/-7--7--7/-8--8--8/--11----11-13-15-|

G E7 Am7 D G (x4)


Chorus:

G            E7
She had some vibes for me
  Am7    D           G           G
I had no vibes for her (No vibes)
                 E7
She pressed them on to me
  Am7       D         G
I have some vibes for her (I got the vibes now)


Bridge:
G E7 Am7  D      G
     pass me the vibes
       G       E7       C        G
     I want to play the vibrophone


Repeat Chorus


G E7 Am7 D G (x5)


Exit Guitar Riff:
--------------------------------------------------------------------------------|
--------------------------------------------------------------------------------|
--------------------------------------------------------------------------------|
--------------------------------------------------------------------------------|
--2-2-2/-6-6-6-6/-7-7-7-7/--10-10-10/-------------------------------------------|
-3-3--3/-7--7--7/-8--8--8/--11---11---------------------------------------------|
Добавлено: 06.11.2015
Вам также может быть интересно:
Другие материалы по этой песне:
  • Аккорды и текст

Страница создана 06.11.2015
http://primanota.ru/donnie-trumpet-and-social-experiment/pass-vibes-chords.htm
Привет, Гость.
Предлагаем пройти революционный курс по гитаре.
Подарок от PrimaNota.Ru, забирай!