PrimaNota.ru - самый крупный в мире бесплатный архив песенных текстов, аккордов, табулатур и нот


Donnas - Youve Got A Crush On Me - текст песни, таба, видео

Регистрация Запомнить меня
Войти через:  Facebook Google Twitter Vk Yandex Mail.ru

Donnas - Youve Got A Crush On Me - текст песни, таба, видео

Печатать
Просмотров: 114
Уроки эстрадного вокала в Санкт-Петербурге
You've Got A Crush On Me
Guitar TAB by Mark

Verse:

 A#  B C                       F
--------------------------------------------------------|
--------------------------------------------------------|
--------------------------------------------------------|
-8-8-9-10----------------------10-10-10-10-10-10-10-10--|
-8-8-9-10-10-10-10-10-10-10-10--8--8--8--8--8--8--8--8--|
-6-6-7--8--8--8--8--8--8--8--8--------------------------|
          PM..........................................

 C             F        C
-------------------------------------|
-------------------------------------|
-------------------------------------|
---------------10-10-10--------------|
-10-10-10-10----8--8--8-10-10-10-10--|
--8--8--8--8-------------8--8--8--8--|


 A#  B C                       A#     F
----------------------------------------------------|
----------------------------------------------------|
----------------------------------------------------|
-8-8-9-10------------------------------10-10-10-10--|
-8-8-9-10-10-10-10-10-10-10-10-8-8-8-8--8--8--8--8--|
-6-6-7--8--8--8--8--8--8--8--8-6-6-6-6--------------|
          PM......................................

 C             F        C
-------------------------------------------------|
-------------------------------------------------|
-------------------------------------------------|
---------------10-10-10--------------------------|
-10-10-10-10----8--8--8-10-10-10-10-10-10-10-10--|
--8--8--8--8-------------8--8--8--8--8--8--8--8--|


Pre-chorus

  G#         F       C      F      C    G#         F
------------------------------------------------------------|
------------------------------------------------------------|
-/13---13-13-10---10--------10--10-----/13---13-13-10---10--|
-/13---13-13-10---10-10--10-10--10-10--/13---13-13-10---10--|
-/11---11-11--8----8-10--10--8---8-10---11---10-10--8----8--|
----------------------8---8---------8-----------------------|

 D
---------5-5-5-5-8-5-5-8-5-5-8-5--|
-7-7-7-7-7-7-7-7-7-7-7-7-7-7-7-7--|
-7-7-7-7-7-7-7-7-7-7-7-7-7-7-7-7--|
-7-7-7-7-7-7-7-7------------------|
-5-5-5-5-5-5-5-5------------------|
----------------------------------|


Chorus:

 C                     D#                A#
-----------------------------------------------------------|
-----------------------------------------------------------|
-----------------------------------------------------------|
-10--10----------------8-8-8-10-8-8-10-8-------------------|
-10--10-12-10-10-12-10-6-6-6--6-6-6--6-6-8--8-10-8-8-10-8--|
--8---8--8--8--8--8--8-------------------6--6--6-6-6--6-6--|

 G#    A#    C                     F
------------------------------------------------|
------------------------------------------------|
-----------------------------------10--10---10--|
-6--6/-8--8--10--10----------------10--10---10--|
-6--6/-8--8--10--10-12-10-10-12-10--8---8----8--|
-4--4/-6--6---8---8--8--8--8--8--8--------------|

 C
----------------------------------------|
----------------------------------------|
----------------------------------------|
-10-10-10-10-10-10-10-10-10-10-10-10-10-|
-10-10-10-10-10-10-10-10-10-10-10-10-10-|
--8--8--8--8--8--8--8--8--8--8--8--8--8-|


Verse
Pre-Chorus
Chorus

Solo:

---------------------------------------------------------------------------|
-10^10-8----8------------8------------8h11p8h11p8h11p8---------------------|
-10^10-8----8------------8-----8--10^------------------8h10p8h10p8h10p8----|
---------10-------10--10----10------------------------------------------10-|
---------------------------------------------------------------------------|
---------------------------------------------------------------------------|


----------------------------------------------------|
----------------------------------------------------|
--8---------------------------------8~--------------|
-----10-8-10--8\----------8----8-10----10-8-10--8\--|
---------------------8-10---10----------------------|
------------------11--------------------------------|


-------------------------------------------|
-4^4-4-2-4------4--4----6^6--6--4--6-------|
-4^4-4-2-4------4--4----6^6--6--4--6---2~--|
------------4/6----------------------------|
-------------------------------------------|
-------------------------------------------|


Last Verse:

 A#  B C                       F
--------------------------------------------------------|
--------------------------------------------------------|
--------------------------------------------------------|
-8-8-9-10----------------------10-10-10-10-10-10-10-10--|
-8-8-9-10-10-10-10-10-10-10-10--8--8--8--8--8--8--8--8--|
-6-6-7--8--8--8--8--8--8--8--8--------------------------|

 C             F        C
-------------------------------------|
-------------------------------------|
-------------------------------------|
---------------10-10-10--------------|
-10-10-10-10----8--8--8-10-10-10-10--|
--8--8--8--8-------------8--8--8--8--|


 A#  B C                       A#     F
----------------------------------------------------|
----------------------------------------------------|
----------------------------------------------------|
-8-8-9-10------------------------------10-10-10-10--|
-8-8-9-10-10-10-10-10-10-10-10-8-8-8-8--8--8--8--8--|
-6-6-7--8--8--8--8--8--8--8--8-6-6-6-6--------------|


 C             F        C
-------------------------------------------------|
-------------------------------------------------|
-------------------------------------------------|
---------------10-10-10--------------------------|
-10-10-10-10----8--8--8-10-10-10-10-10-10-10-10--|
--8--8--8--8-------------8--8--8--8--8--8--8--8--|


Pre-chorus

  G#         F       C      F      C    G#         F
------------------------------------------------------------|
------------------------------------------------------------|
-/13---13-13-10---10--------10--10-----/13---13-13-10---10--|
-/13---13-13-10---10-10--10-10--10-10--/13---13-13-10---10--|
-/11---11-11--8----8-10--10--8---8-10---11---10-10--8----8--|
----------------------8---8---------8-----------------------|

 D
---------5-5-5-5-8-5-5-8-5-5-8-5--|
-7-7-7-7-7-7-7-7-7-7-7-7-7-7-7-7--|
-7-7-7-7-7-7-7-7-7-7-7-7-7-7-7-7--|
-7-7-7-7-7-7-7-7------------------|
-5-5-5-5-5-5-5-5------------------|
----------------------------------|


Chorus

End (repeat and fade):

 C                       F
--------------------------------------------------|
--------------------------------------------------|
-------------------------10-10-10-10-10-10-10-10--|
-10-10-10-10-10-10-10-10-10-10-10-10-10-10-10-10--|
-10-10-10-10-10-10-10-10--8--8--8--8--8--8--8--8--|
--8--8--8--8--8--8--8--8--------------------------|

 C                       G#    A#
-------------------------------------|
-------------------------------------|
-------------------------------------|
-10-10-10-10-10-10-10-10-6--6/-8--8--|
-10-10-10-10-10-10-10-10-6--6/-8--8--|
--8--8--8--8--8--8--8--8-4--4/-6--6--|


Fill (repeat and fade):

-----------------------------------------------------------------------|
-10^10--8----8-----------8----------10^10--8----8-----------8--10-8----|
-10^10--8----8-----------8-----8--8-10^10--8----8-----------8--10-8--8-|
----------10-----10---10----10---------------10-----10---10------------|
-----------------------------------------------------------------------|
-----------------------------------------------------------------------|
Добавлено: 28.04.2012
Вам также может быть интересно:
Другие материалы по этой песне:
  • Аккорды и текст

Страница создана 28.04.2012
http://primanota.ru/donnas/youve-got-a-crush-on-me-chords.htm
Привет, Гость.
Предлагаем пройти революционный курс по гитаре.
Подарок от PrimaNota.Ru, забирай!