PrimaNota.ru - самый крупный в мире бесплатный архив песенных текстов, аккордов, табулатур и нот


Donnas - You Dont Wanna Call - текст песни, таба, видео

Регистрация Запомнить меня
Войти через:  Facebook Google Twitter Vk Yandex Mail.ru

Donnas - You Dont Wanna Call - текст песни, таба, видео

Печатать
Просмотров: 157
Band : The Donnas
Song : You don't wanna call
Album : Get skintight
Tuning : Standard
Tabbed by : Anelore

Intro:

e-----------------------|
B-----------------------|
G-------------5-8-10-10-|
D-8-8-5-5-5-5-5-8-10-10-|     x2
A-8-8-5-5-5-5-3-6--8--8-|
E-6-6-3-3-3-3-----------|
          . .
          PM
e-----------------------------------|
B-----------------------------------|
G-----------------------------------|
D-----------------------------------|
A-8-10-8-8-8-10-8-8-8-10-8-8-8-10-8-|
E-6—6-6-6-6--6-6-6-6--6-6-6-6--6--6-|

Verse 1

Hey Howie, where you been ?
e-------------------------------|
B-------------------------------|
G-------------------------------|
D-8-8-8-8-8-8-8-8-8-8-8-8-8-8-8-|
A-8-8-8-8-8-8-8-8-8-8-8-8-8-8-8-|
E-6-6-6-6-6-6-6-6-6-6-6-6-6-6-6-|
   . . . . . . . . . . . . . .
             PM
e--------------------------------------------------------------|
B--------------------------------------------------------------|
G--------------------------------------------------------------|
D--8-8-8-8-8-8-8-8-8-8-8-8-8-8-8/5-5-5-5-5-5-5-5-5-5-5-5-5-5-5-|
A--8-8-8-8-8-8-8-8-8-8-8-8-8-8-8/5-5-5-5-5-5-5-5-5-5-5-5-5-5-5-|
E—-6-6-6-6-6-6-6-6-6-6-6-6-6-6-6/3-3-3-3-3-3-3-3-3-3-3-3-3-3-3-|
   . . . . . . . . . . . . . .     . . . . . . . . . . . . . .
              PM                              PM

Unless you take me to that midnight show
e-----------------------------------------|
B-----------------------------------------|
G-8-8-8-8-8-8-8-8-10-10-10-10-10-10-10-10-|
D-8-8-8-8-8-8-8-8-10-10-10-10-10-10-10-10-|
A-6-6-6-6-6-6-6-6--8--8--8--8--8--8--8--8-|
E-----------------------------------------|
  . . . . . . . .  .  .  .  .  .  .  .  .
                    PM

You showed up but it's way to late...
e-------------------------------|
B-------------------------------|
G-------------------------------|
D-8-8-8-8-8-8-8-8-8-8-8-8-8-8-8-|
A-8-8-8-8-8-8-8-8-8-8-8-8-8-8-8-|
E-6-6-6-6-6-6-6-6-6-6-6-6-6-6-6-|
   . . . . . . . . . . . . . .
             PM
e--------------------------------------------------------------|
B--------------------------------------------------------------|
G--------------------------------------------------------------|
D--8-8-8-8-8-8-8-8-8-8-8-8-8-8-8/5-5-5-5-5-5-5-5-5-5-5-5-5-5-5-|
A--8-8-8-8-8-8-8-8-8-8-8-8-8-8-8/5-5-5-5-5-5-5-5-5-5-5-5-5-5-5-|
E—-6-6-6-6-6-6-6-6-6-6-6-6-6-6-6/3-3-3-3-3-3-3-3-3-3-3-3-3-3-3-|
   . . . . . . . . . . . . . .     . . . . . . . . . . . . . .
              PM                              PM

But you always have to leave too soon
e-----------------------------------------|
B-----------------------------------------|
G-8-8-8-8-8-8-8-8-10-10-10-10-10-10-10-10-|
D-8-8-8-8-8-8-8-8-10-10-10-10-10-10-10-10-|
A-6-6-6-6-6-6-6-6--8--8--8--8--8--8--8--8-|
E-----------------------------------------|
  . . . . . . . .  .  .  .  .  .  .  .  .
                    PM

Chorus x2 :
You don't wanna call me no more...
e----------------------------|
B----------------------------|
G-------------8-8-8-10-10-10-|
D-8-8-8-8-8-8-8-8-8-10-10-10-|
A-8-8-8-8-8-8-6-6-6--8--8--8-|
E-6-6-6-6-6-6----------------|

You don't wanna call me your girl...
e----------------------------|
B----------------------------|
G-------------8-8-8-10-10-10-|
D-8-8-8-8-8-8-8-8-8-10-10-10-|
A-8-8-8-8-8-8-6-6-6--8--8--8-|
E-6-6-6-6-6-6----------------|

So I guess I'll just go to the mall...
e-3-----------------|
B-3-----------------|
G-0--8-8-8-10-10-10-|
D-0--8-8-8-10-10-10-|
A-2--6-6-6--8--8--8-|
E-3-----------------|

e-------------------------------------|
B-------------------------------------|
G-------------------------------------|
D-------------------------------------|
A-8-10-8-8-8-10-8-8-8-10-8-8-8-10-8---|
E-6—6-6-6-6—6-6-6-6--6-6-6-6--6--6----|


For second verse same chords as first verse

Chorus x2
Intro
Chorus x4
Добавлено: 22.06.2012
Другие материалы по этой песне:
  • Аккорды и текст

Страница создана 22.06.2012
http://primanota.ru/donnas/you-dont-wanna-call-chords.htm
Привет, Гость.
Предлагаем пройти революционный курс по гитаре.
Подарок от PrimaNota.Ru, забирай!