PrimaNota.ru - самый крупный в мире бесплатный архив песенных текстов, аккордов, табулатур и нот


Donnas - When The Show Is Over - текст песни, таба, видео

Регистрация Запомнить меня
Войти через:  Facebook Google Twitter Vk Yandex Mail.ru

Donnas - When The Show Is Over - текст песни, таба, видео

Печатать
Просмотров: 126
Band: The Donnas
Song: When The Show is Over
Album: Bitchin'
Tuning: Standard
Tabbed by: Iggy

p/h = pull off/hammer on
* = Staccato
t = tremolo pick
~ = ring out

wow. incredible song. one of their best. this 
riff was a bitch to figure out and still not
100% sure about it but that just shows you how
talented Ally is. ok lets get started

Intro:
Guitar 1
e--------------------------------|
B---8---6----6h8----8---6----6h8-|
G-----7----7----------7----7-----|
D-0---------------0--------------|
A--------------------------------|
E--------------------------------|
                                     X2
e----------------------------3---3-|
B---8---6----6h8--3----3-3-5---5---|
G-----7----7--------0--------------|
D-8--------------------------------|
A----------------------------------|
E----------------------------------|

Guitar1
e--------------------------------|
B---8---6----6h8----8---6----6h8-|
G-----7----7----------7----7-----|
D-0---------------0--------------|
A--------------------------------|
E--------------------------------|
|
Guitar 2
e--------------------------------|
B--------------------------------|
G-5/7-----------5/7--------------|
D-5/7-----------5/7--------------|
A-3/5-----------3/5--------------|
E--------------------------------|

Guitar 1                                    
e--------------------------5-3---0-|
B---8---6----6----3----3-3-----6---|
G-----7----7--------0--------------|
D-8--------------------------------|
A----------------------------------|
E----------------------------------|
|
Guitar 2                              X2
e----------------------------------|
B----------------------------------|
G-5--3-----------------------------|
D-5--3-----------5------7----------|
A-3--1-----------5------7----------|
E----------------3------5----------|

Verse 
"Sometimes you can't remember..."
Both Guitars
e---------------------|
B---------------------|
G-7------5/7----------|
D-7------5/7----------|
A-5------3/5----------|
E---------------------|

"Where you spent the night..."
Guitar 1
e------------------------------|
B------------------------------|
G-5--3-------------------------|
D-5--3-------------------------|
A-3--1-------------------3-----|
E---------------1-3-5-3h5------|
|
Guitar 2
e------------------------------|
B------------------------------|
G-5--3-------------------------|
D-5--3------5----------7-------|
A-3--1------5----------7-------|
E-----------3----------5-------|

Repeat verse

Pre-Chorus
Both Guitars
"(but I can't get it all)Give me power get me up..."
e----------------------------------------------|
B----------------------------------------------|
G-10---------------------10--------------------|
D-10--10-10-10-10-10-10--10--10-10-10-10-10-10-|
A--8--10-10-10-10-10-10---8--10-10-10-10-10-10-|
E------8--8--8--8--8--8-------8--8--8--8--8--8-|
       *  *  *  *  *  *       *  *  *  *  *  *
"Pretty baby..."
e----------------------------|
B----------------------------|
G-10------------10-----------|
D-10--10-10-10--10--10-10-10-|
A--8--10-10-10---8--10-10-10-|
E------8--8--8-------8--8--8-|
       *  *  *       *  *  *

"Yeah...Yeah...Yeah...Yeah
e--------------------------|
B--------------------------|
G-10-----10-----10-----10--|
D-10-----10-----10-----10--|
A--8------8------8------8--|
E--------------------------|

Chorus
"I've got this feeling..."
e-----------|
B-----------|
G-7---------|
D-7--8--10--|X3
A-5--8--10--|
E----6---8--|

"I'm still all alone."
e-----------|
B-----------|
G-----------|
D-3----5----|
A-3----5----|
E-1----3----|

Guitar1
"When The show is over"
e--------------------------------|
B---8---6----6h8----8---6----6h8-|
G-----7----7----------7----7-----|
D-0---------------0--------------|
A--------------------------------|
E--------------------------------|
|
Guitar 2
e--------------------------------|
B--------------------------------|
G-5/7-----------5/7--------------|
D-5/7-----------5/7--------------|
A-3/5-----------3/5--------------|
E--------------------------------|

Guitar 1                                    
e--------------------------5-3---0-|
B---8---6----6----3----3-3-----6---|
G-----7----7--------0--------------|
D-8--------------------------------|
A----------------------------------|
E----------------------------------|
|
Guitar 2                              
e----------------------------------|
B----------------------------------|
G-5--3-----------------------------|
D-5--3-----------5------7----------|
A-3--1-----------5------7----------|
E----------------3------5----------|

Verse

Pre-Chorus 

Chorus

Solo:
e---------------------13^(1/4)------------------|
B------15-13-15-13-15-----------15-13-15-13-----|
G-------------------------------------------14--|
D-5/12------------------------------------------|
A-----------------------------------------------|
E-----------------------------------------------|

e----------------------------------------|
B----------------------------------------|
G----------------------------------------|
D-12-10-t(12-12-10-10-12-12-10-10)-------|
A----------------------------------10h12-|
E----------------------------------------|

e----------------|------------------------------------|
B----------------|-15-13-15-13-15-20^(22)-20-18-20-18-|
G------10----7---|------------------------------------|
D-7h10----10-----|------------------------------------|
A----------------|------------------------------------|
E----------------|------------------------------------|

e------------------------22---------22---------22-|
B-18-20-18-20-18-20^(22)----20^(22)----20^(22)----|
G-------------------------------------------------|
D-------------------------------------------------|
A-------------------------------------------------|
E-------------------------------------------------|

e-------------------|
B-------------------|
G-----7-5-----------|
D-5h7-----7---0~~~~-|
A-------------------|
E-------------------|

Bridge:
e---------------------------------|
B---------------------------------|
G-7---------2-----6----7----------|
D-7----5----3-----7----7---5---3--|
A-5----5----3-----7----5---5---3--|
E------3----1-----5--------3---1--|

Pre-Chorus
Both Guitars
"(but I can't get it all)Give me power get me up..."
e----------------------------------------------|
B----------------------------------------------|
G-10---------------------10--------------------|
D-10--10-10-10-10-10-10--10--10-10-10-10-10-10-|
A--8--10-10-10-10-10-10---8--10-10-10-10-10-10-|
E------8--8--8--8--8--8-------8--8--8--8--8--8-|
       *  *  *  *  *  *       *  *  *  *  *  *
"Pretty baby..."
e----------------------------|
B----------------------------|
G-10------------10-----------|
D-10--10-10-10--10--10-10-10-|
A--8--10-10-10---8--10-10-10-|
E------8--8--8-------8--8--8-|
       *  *  *       *  *  *

"Yeah...Yeah...Yeah...Yeah
e--------------------------|
B--------------------------|
G-10-----10-----10-----10--|
D-10-----10-----10-----10--|
A--8------8------8------8--|
E--------------------------|

Chorus
"I've got this feeling..."
e-----------|
B-----------|
G-7---------|
D-7--8--10--|X3
A-5--8--10--|
E----6---8--|

"I'm still all alone."
e-----------|
B-----------|
G-----------|
D-3----5----|
A-3----5----|
E-1----3----|

Guitar1
"When The show is over"
e--------------------------------|
B---8---6----6h8----8---6----6h8-|
G-----7----7----------7----7-----|
D-0---------------0--------------|
A--------------------------------|
E--------------------------------|
|
Guitar 2
e--------------------------------|
B--------------------------------|
G-5/7-----------5/7--------------|
D-5/7-----------5/7--------------|
A-3/5-----------3/5--------------|
E--------------------------------|

Guitar 1                                    
e--------------------------5-3---0-|
B---8---6----6----3----3-3-----6---|
G-----7----7--------0--------------|
D-8--------------------------------|
A----------------------------------|
E----------------------------------|
|
Guitar 2                              X2
e----------------------------------|
B----------------------------------|
G-5--3-----------------------------|
D-5--3-----------5------7----------|
A-3--1-----------5------7----------|
E----------------3------5----------|

Outing riff
Guitar 1
e--------------------------------|
B---8---6----6h8----8---6----6h8-|
G-----7----7----------7----7-----|
D-0---------------0--------------|
A--------------------------------|
E--------------------------------|

e-----------------------------3-----------|
B---8---6----6----3----3-3-5------6---5---|
G-----7----7--------0---------------------|
D-8---------------------------------------|
A-----------------------------------------|
E-----------------------------------------|

Ending chord
Guitar 1
e----1~~~-|
B---3~~~~-|
G--2~~~~~-|
D-0~~~~~~-|
A---------|
E---------|
Добавлено: 04.04.2012
Другие материалы по этой песне:

Страница создана 04.04.2012
http://primanota.ru/donnas/when-the-show-is-over-chords.htm
Привет, Гость.
Предлагаем пройти революционный курс по гитаре.
Подарок от PrimaNota.Ru, забирай!