PrimaNota.ru - самый крупный в мире бесплатный архив песенных текстов, аккордов, табулатур и нот


Donnas - Wasted - таба, бас-таба, видео

Регистрация Запомнить меня
Войти через:  Facebook Google Twitter Vk Yandex Mail.ru

Donnas - Wasted - таба, бас-таба, видео

Печатать
Просмотров: 144
-------------------------------------------------------------------------------
                             WASTED – The Donnas
-------------------------------------------------------------------------------
Tabbed by Elmira ////.


tuning: Standard

--------------------------

^...bend
h...hammer on
p...pulloff
/...slide up
\...slide down
~...vibrato




INTRO:
e|--------------------------------------------|
B|--------------------------------------------|
G|--------------------------------------------|
D|-------14-14------12-12-12-12---------------| play x4
A|-12-12--------12---------------0-0-3~--0----|
E|--------------------------------------------|
                                 .
VERSE:
e|---------------------------------------------------------------|            
B|---------------------------------------------------------------|
G|------------------5-5-5-5--5-----------------------------------| 
D|-7-7-7-7-7-7-7-7--5-5-5-5--5—-3-3-3----5-5-5----7-7-7-7--7-----| play x2
A|-7-7-7-7-7-7-7-7--3-3-3-3--3--3-3-3----5-5-5----7-7-7-7--7-----|
E|-5-5-5-5-5-5-5-5--------------1-1-1----3-3-3----5-5-5-5--5-----|
   * * * * * * * *  * * *       * * *    * * *    * * *

e|---------------------------------------------------------|
B|---------------------------------------------------------|
G|---------------------------------------------------------|
D|--------14-14--------12-12-12-12-12-12-12-12-12-12-12-12-| play x2
A|--12-12--------12----------------------------------------|
E|---------------------------------------------------------|

e|---------------------------------------------------------------|            
B|---------------------------------------------------------------|
G|------------------5-5-5-5--5-----------------------------------| 
D|-7-7-7-7-7-7-7-7--5-5-5-5--5—-3-3-3----5-5-5----7-7-7-7--7-----| 
A|-7-7-7-7-7-7-7-7--3-3-3-3--3--3-3-3----5-5-5----7-7-7-7--7-----|
E|-5-5-5-5-5-5-5-5--------------1-1-1----3-3-3----5-5-5-5--5-----|
   * * * * * * * *  * * *       * * *    * * *    * * *


e|-------------------------------|-------------------------------------------|            
B|-------------------------------|-------------------------------------------|
G|------------------5-5-5-5--5---|-------------------------------------------| 
D|-7-7-7-7-7-7-7-7--5-5-5-5--5—--|----3-3-3---5-5-5---7-7-7-7--7-------------| 
A|-7-7-7-7-7-7-7-7--3-3-3-3--3---|----3-3-3---5-5-5---7-7-7-7--7—play-twice--|
E|-5-5-5-5-5-5-5-5---------------|----1-1-1---3-3-3---5-5-5-5--5-------------|
   * * * * * * * *  * * *             * * *   * * *   * * *





e|---------------------------------------------------------------------------|
B|---------------------------------------------------------------------------|
G|---------------------------------------------------------------------------|
D|---------------------------------------------------------------------------|
A|--5---5--5-7-5------------5--5--5-7-5-------pick-slide---------------------|
E|----8-----------8--5--8-----8----------8-----------------------------------|


CHORUS:
e|---------------------------------------------------------|
B|---------------------------------------------------------|
G|-----------------5-x--5-5------------------------7-------|
D|--7--7--7-7------5-x--5-5----3--3---5-5-----7-x--7-7-----| play x2
A|--7--7--7-7------3-x--3-3----3--3---5-5-----7-x--5-7-----|
E|--5--5--5-5------------------1--1---3-3-----5-x----5-----|

e|-----------------------------------------------------|
B|-----------------------------------------------------|
G|--------14-14--------12-12--------14-----------------|
D|---------------14-14------------------14--12---------|
A|--12-12---------------------12-12-------------15-----|
E|-----------------------------------------------------|
VERSE:
e|------------------------------------------------------------------|
B|------------------------------------------------------------------|
G|---------------------------------^--------------------------------|
D|------14~--14-12---12------------12---------7--7------------------| play x2
A|--12~------------15----12~-12-15-----12~\---7--7------------------|
E|--------------------------------------------5--5------------------|

e|-----------------------------|
B|-----------------------------|
G|------------^----------7-----|
D|------------12---------7--7--|
A|--12~-12-15----12~\----5--7--|
E|--------------------------5--|

e|---------------------------------------------------------------------------|
B|---------------------------------------------------------------------------|
G|---------------------------------------------------------------------------|
D|---------------------------------------------------------------------------|
A|--5---5--5-7-5------------5--5--5-7-5-------pick-slide----------------------|
E|----8-----------8--5--8-----8----------8-----------------------------------|


CHORUS:
e|---------------------------------------------------------|
B|---------------------------------------------------------|
G|-----------------5-x--5-5------------------------7-------|
D|--7--7--7-7------5-x--5-5----3--3---5-5-----7-x--7-7-----| play x2
A|--7--7--7-7------3-x--3-3----3--3---5-5-----7-x--5-7-----|
E|--5--5--5-5------------------1--1---3-3-----5-x----5-----|

e|-----------------------------|
B|-----------------------------|
G|-----------------------------|
D|--3--3---5-5----7------------|
A|--3--3---5-5----7------------|
E|--1--1---3-3----5------------|


“I'm already gone…”
e|----------------------------------------------------------|
B|----------------------------------------------------------|
G|-7--7--7-7------------------------------------------------|
D|-7--7--7-7---5--5--5-5----10--10-----9--9---7--7---5--5---| play x3
A|-5--5--5-5---5--5--5-5----10--10-----9--9---7--7---5--5---|
E|-------------3--3--3-3----8---8------7--7---5--5---3--3---|

e|-----------------------------|
B|-----------------------------|
G|-7--7--7-7-------------------|
D|-7--7--7-7---5--5--5-5----2--|
A|-5--5--5-5---5--5--5-5----2--|
E|-------------3--3--3-3----0--|
                  .         


e|------------------------------------------------------|
B|------------------------------------------------------|
G|--------14-14-------12-12-------14--------------------| 
D|--------------14-14----------------14~--12------------|  play x3
A|--12-12-------------------12-12--------------15~------|
E|------------------------------------------------------|





                               SOLO:
e|---------------------------------------------------------------------------|
B|----------------------------14b-14b-14b-14b--------------------13--15------|
G|-------14-14--------12-12---14b-14b-14b-14b----14\--9/-14--16--------------|
D|--------------14-14--------------------------------------------------------|
A|-12-12---------------------------------------------------------------------|
E|---------------------------------------------------------------------------|

e|---------------------------------------------------------------------------|
B|-15h13h15h13h15h13h15h13----17p13h15-17p13h15-17p13h15-17p13h15------------|
G|---------------------------------------------------------------------------|
D|---------------------------------------------------------------------------|
A|---------------------------------------------------------------------------|
E|---------------------------------------------------------------------------|


e|---------------------------------------------------------------------------|
B|-20p13h17-20p13h17-20p13h17-20p13h17---22p13h17-22p13h17-22p13h17-22p13h17-|
G|---------------------------------------------------------------------------|
D|---------------------------------------------------------------------------|
A|---------------------------------------------------------------------------|
E|---------------------------------------------------------------------------|

e|------------------------------------------------------------------------22b|
B|-17/---22~--22~----22~-----------17--------------------------17--20--22----|
G|---------------------------17-19----17~----------------17------------------|
D|------------------------19-----------------17----19-------19---------------|
A|----------------------------------------19----19----19---------------------|
E|---------------------------------------------------------------------------|



e|---------------------------------------------------------|
B|---------------------------------------------------------|
G|-----------------5-x--5-5------------------------7-------|
D|--7--7--7-7------5-x--5-5----3--3---5-5-----7-x--7-7-----| play x2
A|--7--7--7-7------3-x--3-3----3--3---5-5-----7-x--5-7-----|
E|--5--5--5-5------------------1--1---3-3-----5-x----5-----|


e|---------------------------------------------------------|
B|---------------------------------------------------------|
G|-----------------5-x--5-5--------------------------------|
D|--7--7--7-7------5-x--5-5--4-4-4-4--3-3-3-3--------------| play x3
A|--7--7--7-7------3-x--3-3--4-4-4-4--3-3-3-3--------------|
E|--5--5--5-5----------------2-2-2-2--1-1-1-1--------------|


e|---------------------------------------------------------|
B|---------------------------------------------------------|
G|-----------------5-x--5-5--------------------------------|
D|--7--7--7-7------5-x--5-5--4-4-4-4--3-3-3-3-3-3-3-3------| 
A|--7--7--7-7------3-x--3-3--4-4-4-4--3-3-3-3-3-3-3-3------|
E|--5--5--5-5----------------2-2-2-2--1-1-1-1-1-1-1-1------|


e|---------------------------------------------------------|
B|---------------------------------------------------------|
G|---------------------------------------------------------|
D|--7-------10-------3---5-----7---------------------------|
A|--7-------10-------3---5-----7---------------------------|
E|--5-------8--------1---3-----5---------------------------|





Добавлено: 14.04.2012
Другие материалы по этой песне:

Страница создана 14.04.2012
http://primanota.ru/donnas/wasted-chords.htm
Привет, Гость.
Предлагаем пройти революционный курс по гитаре.
Подарок от PrimaNota.Ru, забирай!