PrimaNota.ru - самый крупный в мире бесплатный архив песенных текстов, аккордов, табулатур и нот


Donnas - Tonights Alright - таба, видео

Регистрация Запомнить меня
Войти через:  Facebook Google Twitter Vk Yandex Mail.ru

Donnas - Tonights Alright - таба, видео

Печатать
Просмотров: 115
Song: Tonight's Alright
Artist: The Donnas
Album: Bitchin' 
Tuning: Standard

Key
/ = slide
h and p = hammer on and/or pull off
[] = triplet
^ = bend


Intro
e-----------------------19--|
B--------------------17-----|
G-----------------16--------|
D---------------------------|
A---7------7----------------|
E-0----0-0----0-------------|

e-------------------|----------------|
B-------------------|----------------|
G-------------------|----------------|
D-11--12--12-11--9--|-11--12----11-9-|
A--7---7---7--7--7--|--7---7-----7-7-|
E-------------------|----------------|

Verse
e-----------------|-----------------|
B-----------------|-----------------|
G-----------------|-----------------|
D-----2-------2---|----2-------2----|
A-----------------|-----------------|
E-0-0---0-0-0---0-|-0-0---0-0-0---0-|

e-------------------|
B-------------------|
G-------------------|
D-11--12--12-11--9--|
A--7---7---7--7--7--|
E-------------------|

Pre-Chorus
"Well who needs sleep..."
e----------------------|
B----------------------|
G-4----6-----9---------|
D-5----7----10----9----|
A-5----7----10----9----|
E-3----5-----8----7----|

Chorus
"Tonights alright with me..."
e---------------------|
B---------------------|
G-9--7--6--7--9--9-9--|
D-9--7--6--7--9--9-9--|X4
A-7--5--4--5--7--7-7--|
E---------------------|
This part is hard to hear and tab but i think
she uses the same rythm as this one part of the solo
which will be marked by an *.

Pre-verse(?)
e-----------------------------------------|
B-----------------------------------------|
G-----------------------------------------|
D-----------------------------------------|
A------7-------7---7p5h7p5h7p5h7p5h7p5h7--|
E-0--0---0-0-0---0------------------------|

Verse
e-----------------|-----------------|
B-----------------|-----------------|
G-----------------|-----------------|
D-----2-------2---|----2-------2----|
A-----------------|-----------------|
E-0-0---0-0-0---0-|-0-0---0-0-0---0-|

e-------------------|
B-------------------|
G-------------------|
D-11--12--12-11--9--|
A--7---7---7--7--7--|
E-------------------|

Pre-Chorus
"Well who that, don't need to pay..."
e----------------------|
B----------------------|
G-4----6-----9---------|
D-5----7----10----9----|
A-5----7----10----9----|
E-3----5-----8----7----|

Chorus
"Tonights alright with me..."
e---------------------|
B---------------------|
G-9--7--6--7--9--9-9--|
D-9--7--6--7--9--9-9--|X4
A-7--5--4--5--7--7-7--|
E---------------------|

Interluding
"You're making the same demands"
e----------------|
B----------------|
G-9--4-5---5/9-7-|
D-9--4-5---5/9-7-|X3
A-7--2-3---3/7-5-|
E----------------|

"Coz i really don't give a damn"
e-----------|
B-----------|
G-9---------|
D-9----7----|
A-7----7----|
E------5----|

Solo
e------------------------------|
B---12---10-9-10---12---10-9---|
G-9----9---------9----9------9-|
D------------------------------|
A------------------------------|
E------------------------------|

e---------|---12---10---9---12-12/16-16~-|
B-------9-|------------------------------|
G-9p7-----|-9----9----9---9--------------|
D-----9---|------------------------------|
A---------|------------------------------|
E---------|------------------------------|
            ****************************

e----------------------------------------------|
B--9------10------12---------------------------|
G-11^(13)-12^(14)-14^(16)----0-2-[2-4-2]-0---0-|
D--------------------------2---------------2---|
A----------------------------------------------|
E----------------------------------------------|

e-17^(19)-17-15-------15-17-17^(19)v(17)p15----|
B---------------15-17-----------------------17-|
G----------------------------------------------|
D----------------------------------------------|
A----------------------------------------------|
E----------------------------------------------|

end of solo 
"Didn't sleep at all last night..."
e-15h16~~~~~~~~~~~~~~~~~~~~~-|
B----------------------------|
G----------------------------|
D----------------------------|
A----------------------------|
E----------------------------|

"The money's tight and it doesn't matter..."
e------e--------e--s----------------------------|
B-----r-s-------r--t--t---r-e-----t-s-----------|
G----t----t-----t--r-----t------r-----e--t-e-s--|
D---s-r-e--r----s--e--s--s-e-r-----------sr---t-|
A--e--------e---e--s--e------t--e-----r--e----r-|
E-r----------s--r--t--r--r-e-s----s-t----r----e-|
(blurr your vision)
e---------------------------------------|
B---s-t----------------------------r-e--|
G-e-----r--r-----------t--t-e-s---t-----|
D-----------e---e-s---s---sr---t--s-e-r-|
A-r-----e----s-r---t-e----e----r------t-|
E---t-s-------t-----r-----r----e--r-e-s-|

Pre-Chorus
"Well who that, don't need to pay..."
e----------------------|
B----------------------|
G-4----6-----9---------|
D-5----7----10----9----|
A-5----7----10----9----|
E-3----5-----8----7----|

Chorus
"Tonights alright with me..."
e---------------------|
B---------------------|
G-9--7--6--7--9--9-9--|
D-9--7--6--7--9--9-9--|X4
A-7--5--4--5--7--7-7--|
E---------------------|

Key change
"Tonights alright with me..."
e-------0----|
B-------0----|
G-8--6--1----|
D-9--7--2----|X4
A-9--7--2----|
E-7--5--0----|
Добавлено: 09.03.2012
Другие материалы по этой песне:
  • Аккорды и текст

Страница создана 09.03.2012
http://primanota.ru/donnas/tonights-alright-chords.htm
Привет, Гость.
Предлагаем пройти революционный курс по гитаре.
Подарок от PrimaNota.Ru, забирай!