PrimaNota.ru - самый крупный в мире бесплатный архив песенных текстов, аккордов, табулатур и нот


Donnas - Skintight - аккорды и текст, таба, видео

Регистрация Запомнить меня
Войти через:  Facebook Google Twitter Vk Yandex Mail.ru

Donnas - Skintight - аккорды и текст, таба, видео

Печатать
Просмотров: 121
Skintight
Donnas
The Donnas - Skintight
Submitted By: sarah
EMail: rocknerd18@yahoo.com
Album: Get Skintight
Tabbed By: Bertha


Intro:

e|-----------|
B|-----------|
G|-----------|
D|-----------|
A|--3--5-----|
E|--1--3-----|

Verse:

e|-------------------------------------------------------------|
B|-------------------------------------------------------------|
G|-------------------------------------------------------------|
D|-----------777---------777-------------777-------------------|
A|----77777--555--77777--555--7---77777--555--7---77777--------|
E|----55555-------55555-------5---55555-------5---55555--------|
PM                       .....           .....
			  I saw You Standin'...

e|--------------------------------------------|
B|--------------------------------------------|
G|--------------------------------------------|
D|--777------------77--5555--777--------------|
A|--555--7--77777--55--3333--555--7--77777----|
E|-------5--55555-----------------5--55555----|
PM          .....           .....	


e|--------------------------------------------|
B|--------------------------------------------|
G|--------------------------------------------|
D|777-----------777------------77--5555--777--|
A|555--7--7777--555--7--77777--55--3333--555--|
E|-----5--5555-------5--55555-----------------|
PM        ....          .....

e|--------------------------------------|
B|--------------------------------------|
G|----------------------Play-Lead-Part--|
D|--10-10-10/12-12-12-------------------|
A|---8--8--8/10-10-10-------------------|
E|--------------------------------------|

Lead Part:
B|-------------------------------------|
G|--7b--5--7b--5--7b--5--7b--5--7b--5--|
D|-------------------------------------|

Chorus:
e|----------------------------------------|
B|----------------------------------------|
G|----------------------------------------|
D|--5555--------------5555----------------|
A|--3333--5555--7777--3333--5555--7777----|
E|--------3333--5555--------3333--5555----|

e|----------------------------------------|
B|----------------------------------------|
G|------------------------Play-Lead-Part--|
D|-5555--------5555-----------------------|
A|-3333--5555--3333--5555-----------------|
E|-------3333--------3333-----------------|
    Skintight Baby Alright...

Verse #2:

e|----------------------------------------------|
B|----------------------------------------------|
G|----------------------------------------------|
D|----------77----------77------------777-------|
A|--777777--55--777777--55--7--77777--555-------|
E|--555555------555555------5--55555------------|
PM                    .....        

e|----------------------------------------------|
B|----------------------------------------------|
G|----------------------------------------------|
D|-----------777---------77--5555--777----------|
A|-7--77777--555--77777--55--3333--555----------|
E|-5--55555-------55555-------------------------|
PM    .....       .....

e|--------------------------------------|
B|--------------------------------------|
G|-----------------------Play-Lead-Part-|
D|--10-10--10/12-12-12------------------|
A|---8--8---8/10-10-10------------------|
E|--------------------------------------|

Chorus #2:
e|----------------------------------------|
B|----------------------------------------|
G|----------------------------------------|
D|--5555--------------5555----------------|
A|--3333--5555--7777--3333--5555--7777----|
E|--------3333--5555--------3333--5555----|

e|----------------------------------------|
B|----------------------------------------|
G|------------------------Play-Lead-Part--|
D|-5555--------5555-----------------------|
A|-3333--5555--3333--5555-----------------|
E|-------3333--------3333-----------------|

Solo:
I have no clue if you know it please e-mail it to me

But the chords that are played under the solo are:
e|----------------------------------------------|
B|----------------------------------------------|
G|----------------------------------------------|
D|----------77----------77------------777-------|
A|--777777--55--777777--55--7--77777--555-------|
E|--555555------555555------5--55555------------|
PM                    .....        

e|----------------------------------------------|
B|----------------------------------------------|
G|----------------------------------------------|
D|-----------777---------77--5555--777----------|
A|-7--77777--555--77777--55--3333--555----------|
E|-5--55555-------55555-------------------------|
PM    .....       .....

e|--------------------------------------|
B|--------------------------------------|
G|-----------------------Play-Lead-Part-|
D|--10-10--10/12-12-12------------------|
A|---8--8---8/10-10-10------------------|
E|--------------------------------------|
Verse #3: 

e|-------------------------------------------------------------------------|
B|-------------------------------------------------------------------------|
G|-------------------------------------------------------------------------|
D|----------------------------------------------------5555---777-----------|
A|---77777777---77---77777777---77---777777777---77---3333---555-----------|
E|---55555555---55---55555555---55---555555555---55------------------------|
PM   ........        ........        .........             

e|----------------------------------------|
B|----------------------------------------|
G|-----------------------Play-Lead-Part---|
D|--10-10-10/12-12-12---------------------|
A|---8--8--8/10-10-10---------------------|
E|----------------------------------------|

Chorus #3

e|-------------------------------------------------------------------------|
B|-------------------------------------------------------------------------|
G|-----------------------------------------------------------Play-Lead-Px2-|
D|--5555--------------5555--------------5555--------5555-------------------|
A|--3333--5555--7777--3333--5555--7777--3333--5555--3333--5555-------------|
E|--------3333--5555--------3333--5555--------3333--------3333-------------|

End on A
Добавлено: 07.01.2014
Другие материалы по этой песне:
  • Аккорды и текст

Страница создана 10.03.2012
http://primanota.ru/donnas/skintight-chords.htm
Привет, Гость.
Предлагаем пройти революционный курс по гитаре.
Подарок от PrimaNota.Ru, забирай!