PrimaNota.ru - самый крупный в мире бесплатный архив песенных текстов, аккордов, табулатур и нот


Donnas - Shes Out Of Control - бас-таба, видео

Регистрация Запомнить меня
Войти через:  Facebook Google Twitter Vk Yandex Mail.ru

Donnas - Shes Out Of Control - бас-таба, видео

Печатать
Просмотров: 122
Уроки эстрадного вокала в Санкт-Петербурге
|--------------------------|
|--------------------------|
|--55---2---0--------------|   X2
|---------------3333333----|

|-----------------------------------|
|-----------------------------------|
|-2222222---0---------00000---------|
|--------------33333----------3-5---|

|-----------------------------------|
|-----------------------------------|
|-2222222---00----------------------|
|---------------333555777-----33355-|

|-----------------------------------|
|-----------------------------------|
|-2222222---0---------00000---------|
|--------------33333----------3-5---|

|-----------------------------------|
|-----------------------------------|
|-2222222---00----------------33355-|
|---------------333555777-----------|

|--------------------------|
|--------------------------|          
|--777777--33333--555555---|    X2
|--------------------------|

|-----------------------------------|
|-----------------55555-------------|
|--777777--55555---------77777------|
|-----------------------------------|

|--------------------------|
|--------------------------|
|--------------------------|
|----333333--5x-5x---------|

|--------------------------|
|--------------------------|
|--55---2---0--------------|
|---------------3333333----|

|-----------------------------------|
|-----------------------------------|
|-2222222---0---------00000---------|
|--------------33333----------3-5---|

|-----------------------------------|
|-----------------------------------|
|-2222222---00----------------------|
|---------------333555777-----33355-|

|-----------------------------------|
|-----------------------------------|
|-2222222---0---------00000---------|
|--------------33333----------3-5---|

|-----------------------------------|
|-----------------------------------|
|-2222222---00----------------33355-|
|---------------333555777-----------|

|--------------------------|
|--------------------------|          
|--777777--33333--555555---|    X2
|--------------------------|

|-----------------------------------|
|-----------------55555-------------|
|--777777--55555---------77777------|
|-----------------------------------|

|--------------------------|
|--------------------------|
|--------------------------|
|----333333--5x-5x---------|

|--------------------------|
|--------------------------|
|--55---2---0--------------|    X3
|---------------3333333----|

|--------------------------|
|--------------------------|
|--------------------------|
|----000000---222222-------|

|-----------------------------------|
|-----------------------------------|
|---4444777777---------9---7-9------|
|--------------55555----------------|

|-----------------------------------|
|-----------------------------------|
|---4444777777----------------------|
|--------------55555----2x-2x-------|

|-----------------------------------|
|-----------------------------------|
|---4444777777---------9---7-9------|
|--------------55555----------------|

|--------------------------|
|--------------------------|
|--------------------------|
|---00000000---22222222----|

|-----------------------------------|
|-----------------------------------|
|-----------------------33355-------|
|----33333-55555-77777--------------|

|--------------------------|
|--------------------------|          
|--777777--33333--555555---|    X2
|--------------------------|

|-----------------------------------|
|-----------------55555-------------|
|--777777--55555---------77777------|
|-----------------------------------|

|--------------------------|
|--------------------------|
|--------------------------|   X3
|----333333--5x-5x---------|

|--------------------------|
|--------------------------|
|--55---2---0--------------|   X3
|---------------3333333----|

|--------------------------|
|--------------------------|
|--55---2---0--------------|
|---------------3~---------|
Добавлено: 11.06.2012
Другие материалы по этой песне:
  • Аккорды и текст

Страница создана 11.06.2012
http://primanota.ru/donnas/shes-out-of-control-chords.htm
Привет, Гость.
Предлагаем пройти революционный курс по гитаре.
Подарок от PrimaNota.Ru, забирай!