PrimaNota.ru - самый крупный в мире бесплатный архив песенных текстов, аккордов, табулатур и нот


Donnas - Rock N Roll Machine - текст песни, таба, драм-таба, видео

Регистрация Запомнить меня
Войти через:  Facebook Google Twitter Vk Yandex Mail.ru

Donnas - Rock N Roll Machine - текст песни, таба, драм-таба, видео

Печатать
Просмотров: 144
Rock N Roll Machine

Intro part 1:

   C
----------------------------------|
----------------------------------|
----------------------------------|
----------------------------------|
--10--10---12-10-10--13-10-12-10--|
---8---8----8--8--8---8--8--8--8--|


Intro part 2 (with 2nd guitar repeating intro part 1) (2x)

 A#  B   C
---------------------------------------------|
---------------------------------------------|
---------------------------------------------|
-8-8-9-9-10-10-10-10-10-10-10-10-10-10-10-10-|
-8-8-9-9-10-10-10-10-10-10-10-10-10-10-10-10-|
-6-6-7-7--8--8--8--8--8--8--8--8--8--8--8--8-|


Intro part 2 3rd time:

 A#  B   C
-------------------------------------------------------------------------|
-------------------------------------------------------------------------|
-------------------------------------------------------------------------|
-8-8-9-9-10-10-10-10-10-10-10-10-10-10-10-10-10-10-10-10-10-10-10-10-10--|
-8-8-9-9-10-10-10-10-10-10-10-10-10-10-10-10-10-10-10-10-10-10-10-10-10--|
-6-6-7-7--8--8--8--8--8--8--8--8--8--8--8--8--8--8--8--8--8--8--8--8--8--|


Verse part 1:

 F        D#            A#
--------------------------------------------|
-10-----------------------------------------|
-10-------8---------------------------------|
-10-------8--10p8-8-10--8-------------------|
--8-------6---6---6--6--8--8-10-8-8-8-10-8--|
------------------------6--6--6-6-6-6--6-6--|


 F                                           D#            A#
------------------------------------------------------------------------------|
------------------------------------------------------------------------------|
-10------------------------------------------8--------------------------------|
-10--12p10-10-10-12p10-10-10-12p10-10-10-10--8--10p8-8-10--8------------------|
--8---8-----8--8--8-----8--8--8-----8--8--8--6---6---6--6--8--8-10-8-8-8-8-8--|
-----------------------------------------------------------6--6--6-6-6-6-6-6--|


Verse part 2 (2x):

 A#                        F
-----------------------------------------------------------------------|
-----------------------------------------------------------------------|
-----------------------------------------------------------------------|
-8--8-8--8-8--8--8-8--8-8--10--12p10-10-10-12p10-10-10-12p10-10-10-10--|
-8--8-8--8-8--8--8-8--8-8---8---8-----8--8--8-----8--8--8-----8--8--8--|
-6--6-6--6-6--6--6-6--6-6----------------------------------------------|


Verse part 3:

 D#              F                A#         D#
------------------------------------------------------------|
------------------------------------------------------------|
-8-------------------------------------------8--------------|
-8---10-10--8-8--10-10-12-12--10--8--8--8--8-8--8-10-8-8-8--|
-6----6--6--6-6---8--8--8--8---8--8--8--8--8-6--6--6-6-6-6--|
----------------------------------6--6--6--6----------------|


Chorus:

 A#        D#   F      A#          D#   F
-----------------------------------------------|
-----------------------------------------------|
-----------8-8/-10--10-------------8-8/-10--10-|
-8--8--8-8-8-8/-10--10-8------8--8-8-8/-10--10-|
-8--8--8-8-6-6/--8---8-8------8--8-6-6/--8---8-|
-6--6--6-6-------------6--6-6-6--6-------------|
                          PM.

 A#          D#   F      A#
--------------------------------------------------------|
--------------------------------------------------------|
-------------8-8/-10--10--------------------------------|
-8------8--8-8-8/-10--10-8------------------------------|
-8------8--8-6-6/--8---8-8--10-8-8-8-10-8-8-8-10-8-8-8--|
-6--6-6-6--6-------------6---6-6-6-6--6-6-6-6--6-6-6-6--|
    PM.


Verse #2: (Verse Part 1, Part 2, Part 3)

Chorus


Bridge (4x):

 F                             D# A#
-------------------------------------|
-------------------------------------|
-10----------------------------8-----|
-10--12p10-10--12p10-10--12p10-8--8--|
--8---8-----8---8-----8---8----6--8--|
----------------------------------6--|


Solo:


-8-------8-----8-8-------------------------------------------------------|
-8-------8-----8-8-------------------------------------------------------|
----10^----10^-----10^10p8-8----10-8--10^-^10-^10-^10-^10^10p8-8----8-8--|
-----------------------------10----------------------------------10------|
-------------------------------------------------------------------------|
-------------------------------------------------------------------------|


--------------------------------8-------8-----8-8--11-11-----11-----11-11--|
--------------------------------8-------8-----8-8--11-11-----11-----11-11--|
---------------10-8----------10----10^----10^------------13^----13^--------|
------------10-------8-8p5-------------------------------------------------|
-------8-10----------------8-----------------------------------------------|
-8--11---------------------------------------------------------------------|


Verse #3: (Verse Part 1, Part 2, Part 3)

Chorus

Bridge (3x)

4th time:

 F                             D# A# F
-----------------------------------------|
-----------------------------------------|
-10----------------------------8-----10--|
-10--12p10-10--12p10-10--12p10-8--8--10--|
--8---8-----8---8-----8---8----6--8---8--|
----------------------------------6------|
Добавлено: 01.07.2012
Другие материалы по этой песне:
  • Аккорды и текст

Страница создана 26.03.2012
http://primanota.ru/donnas/rock-n-roll-machine-chords.htm
Привет, Гость.
Предлагаем пройти революционный курс по гитаре.
Подарок от PrimaNota.Ru, забирай!