PrimaNota.ru - самый крупный в мире бесплатный архив песенных текстов, аккордов, табулатур и нот


Donnas - Rid Of That Girl - таба, видео

Регистрация Запомнить меня
Войти через:  Facebook Google Twitter Vk Yandex Mail.ru

Donnas - Rid Of That Girl - таба, видео

Печатать
Просмотров: 108
Hope you enjoy it..

A-577xxx
D-101212xxx
E-x799xx

					D  A E E E E E 
|-----------------------------------------------------------------------|
|-----------------------------------------------------------------------|
|--------------------------------------------9-9-9-9-9------------------|
|--7------------------------------------12-7-9-9-9-9-9------------------|
|--7------------------------------------12-7-7-7-7-7-7------------------|
|--5------------------------------------10-5----------------------------|
	See that boy he looks so fine
					D  A E E E E E E E E 
|-----------------------------------------------------------------------|
|-----------------------------------------------------------------------|
|--------------------------------------------9-9-9-9-9-9-9-9------------|
|---------------------------------------12-7-9-9-9-9-9-9-9-9------------|
|---------------------------------------12-7-7-7-7-7-7-7-7-7------------|
|---------------------------------------10-5----------------------------|
    But hes got a girlfriend my oh my

Go Go Go
        
CHORUS:
(for this part, play the power chords for each regular chord indicated, repeat them until 

the next chord comes up)


The first line would look like this
|--------------------------------------------------------|
|--------------------------------------------------------|
|--------------------------------------------------------|
|-------7-7-7-7-7-7-7-7-7-7-7----------------------------|
|-------7-7-7-7-7-7-7-7-7-7-7----------------------------|
|-------5-5-5-5-5-5-5-5-5-5-5----------------------------|

	A
Im gonna hit her in the head
         D         E
Im gonna knock her down
         A                        D    E
Im gonna drag her by the hair all over town

         A               D           E
Im gonna get get get get rid of that girl
         A               D           E
Im gonna get get get get rid of that girl
         A               D           E      A    D  A
Im gonna get get get get rid of that girl tonight

|-----------------------------------------------------------------------|
|-----------------------------------------------------------------------|
|--------------------------------------------9-9-9-9-9------------------|
|--7------------------------------------12-7-9-9-9-9-9------------------|
|--7------------------------------------12-7-7-7-7-7-7------------------|
|--5------------------------------------10-5----------------------------|
Her hairs so blond and her nails' so long
|-----------------------------------------------------------------------|
|-----------------------------------------------------------------------|
|--------------------------------------------9-9-9-9-9-9-9-9------------|
|---------------------------------------12-7-9-9-9-9-9-9-9-9------------|
|---------------------------------------12-7-7-7-7-7-7-7-7-7------------|
|---------------------------------------10-5----------------------------|
So I put my Mabelines record on

Kill Kill Kill

CHORUS:
 	A
Im gonna drag her ass down to my car
        D         E
Im gonna use that Matchlight Mountain Dew crush

        A               D           E
Im gonna get get get get rid of that girl
         A               D           E
Im gonna get get get get rid of that girl
         A               D           E      A    D  A
Im gonna get get get get rid of that girl tonight



D                   A
Everytime I see him he's with she
          D                 A
I'm gonna make her legs all wobbely
D               A
I can't wait to punch out her cheeks
B                   E
Then that boy'll be all for me

So when we pass her on the way to school
He'll no longer say how she's so cool to me

E|-----------------------------------|
B|-----------------------------------|
G|-----------------------------------|
D|--------------4-4-5-5-4-4----------|
A|------4-4-7-7-------------7-7-4-4--|
E|--5-5------------------------------|


A     D      E           A      D    E    A
Get rid of that girl     get rid of that girl 

See that boy...

I'm gonna hit her...

I'm gonna get get...

                A     D      E           A    D
Get rid of that girl     get rid of that girl
    E           A     D      E                A
get rid of that girl     get rid of that girl
Добавлено: 18.03.2012
Другие материалы по этой песне:
  • Аккорды и текст

Страница создана 18.03.2012
http://primanota.ru/donnas/rid-of-that-girl-chords.htm
Привет, Гость.
Предлагаем пройти революционный курс по гитаре.
Подарок от PrimaNota.Ru, забирай!