PrimaNota.ru - самый крупный в мире бесплатный архив песенных текстов, аккордов, табулатур и нот


Donnas - Randi - таба, видео

Регистрация Запомнить меня
Войти через:  Facebook Google Twitter Vk Yandex Mail.ru

Donnas - Randi - таба, видео

Печатать
Просмотров: 129
Уроки эстрадного вокала в Санкт-Петербурге
Song: Randi
Artist: The Donnas
Tuning: STandard
Tabbed by: Iggy

Intro 
e-------------------|
B-------------------|
G-------------------|
D-7/9--9--7--7/5--7-|
A-7/9--9--7--7/5--7-|
E-5/7--7--5--5/3--5-|X2

VerseX2
e-------|
B-------|
G-7-----|
D-7-----|
A-5-----|
E-------|

Guitar 1
e-------------------|
B-------------------|
G-------------------|
D-7/9--9--7--7/5--7-|
A-7/9--9--7--7/5--7-|
E-5/7--7--5--5/3--5-|
|
|
Guitar 2
e-------------------|
B-------------------|
G-16--16-16--16-16--|
D--X---X--X---X--X--|
A-14--14-14--14-14--|
E-------------------|

Pre-Chorus
"You were born to play the part"
e------------------------|
B------------------------|
G------------------------|
D-2-----------5-------7--|
A-2-----------5-------7--|
E-0-----------3-------5--|

Chorus
"You got it, Randi, You got it all tonight..."
e-------------------|
B-------------------|
G-------------------|
D-7/9--9--7--7/5--7-|
A-7/9--9--7--7/5--7-|X2
E-5/7--7--5--5/3--5-|

VerseX2

Pre-Chorus

Chorus
"You got it, Randi, You got it all tonight..."
e-------------------|
B-------------------|
G-------------------|
D-7/9--9--7--7/5--7-|
A-7/9--9--7--7/5--7-|X3
E-5/7--7--5--5/3--5-|

"We got you, Randi, but just for the night."
e-----------------|
B-----------------|
G-----------------|
D-7/9--9--2---4---|
A-7/9--9--2---4---|
E-5/7--7--0---2---|

Bridge
"Livin' out your dreams"
e----------------|
B----------------|
G-5--------------|
D-5-----5----2---|
A-3-----5----2---|
E-------3----0---|

"Got your name in lights, But they never spell it right"
e-----------------------------|
B-----------------------------|
G-5---------------------------|
D-5----5----9-10-9-10-10--10-12-|
A-3----5----9-10-9-10-10--10-12-|
E------3----7--8-7--8--8---8-10-|

Solo
(easiest Donnas solo ever!)
Guitar 1
e-------------------|
B-------------------|
G-------------------|
D-7/9--9--7--7/5--7-|
A-7/9--9--7--7/5--7-|
E-5/7--7--5--5/3--5-|
|
|
Guitar 2 
e----------------------------|
B-7--------------------------|
G-9^(11)-9^(11)v(9)p7---7----|
D---------------------9----9-|
A----------------------------|
E----------------------------|

Guitar 1
e-------------------|
B-------------------|
G-------------------|
D-7/9--9--7--7/5--7-|
A-7/9--9--7--7/5--7-|
E-5/7--7--5--5/3--5-|
|
|
Guitar 2 
e----------------------------|
B-7--------------------------|
G-9^(11)-9^(11)v(9)p7---7----|
D---------------------9------|
A----------------------------|
E----------------------------|

Guitar 1
e-------------------|
B-------------------|
G-------------------|
D-7/9--9--7--7/5--7-|
A-7/9--9--7--7/5--7-|
E-5/7--7--5--5/3--5-|
|
|
Guitar 2 
e-----------------------------|
B-12----12----12----12-15--12-|
G----14----14----14-----------|
D-----------------------------|
A-----------------------------|
E-----------------------------|

Guitar 1
e-------------------|
B-------------------|
G-------------------|
D-7/9--9--7--7/5--7-|
A-7/9--9--7--7/5--7-|
E-5/7--7--5--5/3--5-|
|
|
Guitar 2 
e----------------------12-----|
B-12----12----12----12--------|
G----14----14----14-----------|
D-----------------------------|
A-----------------------------|
E-----------------------------|

Guitar 1
e----------|
B----------|
G-7--------|
D-7--------|
A-5--------|
E----------|
|
|
Guitar 2
e-12^(14)--|
B----------|
G----------|
D----------|
A----------|
E----------|
|
|
Guitar 3
e-5-------|
B---7-5---|X4
G-------7-|
D---------|
A---------|
E---------|
Guitar three is all palm muted till i say so.

Guitar 3
e-7-5-----|
B-----7-5-|
G---------|
D---------|X4
A---------|
E---------|

drums and bass come in now
Bass
G-----------------------|
D-----------------------|
A-----------------------|
E-2-2-2-2-2-2-2-2-2-2-2-|
|
Guitar 3
e-5-7-5---7-5-7-9-|
B-------7---------|
G-----------------|
D-----------------|X2
A-----------------|
E-----------------|

Bass
G---------------------|
D---------------------|
A---------------------|
E-3-3-3-3-3-3-3-3-3-3-|
|
Guitar 3
e-10-9-7----|
B--------10-|X2
G-----------|
D-----------|
A-----------|
E-----------|
release palm muting

Bass
G---------------------|
D---------------------|
A---------------------|
E-5-5-5-5-5-5-5-5-5-5-|
|
Guitar 3
e-12-10-9-10-|
B------------|
G------------|X2
D------------|
A------------|
E------------|

Chorus with key change
e------------------------|
B------------------------|
G------------------------|
D-9/11--11--9--9/7--7--9-|
A-9/11--11--9--9/7--7--9-|
E-7/-9---9--7--7/5--5--7-|X3

"They got you randi..."
(before the bridge, these chords were shorter
but now they take up whole measures for this
part so don't confuse the two. the ones before
were half as long as these now.)
e-------------|
B-------------|
G-------------|
D-2------4----|
A-2------4----|
E-0------2----|

Chorus Xalot
"You got it, Randi, You got it all tonight..."
e-------------------|
B-------------------|
G-------------------|
D-7/9--9--7--7/5--7-|
A-7/9--9--7--7/5--7-|
E-5/7--7--5--5/3--5-|

"We got you, Randi, but just for the night."
e-----------------|
B-----------------|
G-----------------|
D-7/9--9--2---4---|
A-7/9--9--2---4---|
E-5/7--7--0---2---|

repeat the last chorus, fade out and your done.
simple song but still kick-ass.
love me or hate me at reptiliahasnoend@yahoo.com
Добавлено: 06.07.2012
Другие материалы по этой песне:

Страница создана 23.03.2012
http://primanota.ru/donnas/randi-chords.htm
Привет, Гость.
Предлагаем пройти революционный курс по гитаре.
Подарок от PrimaNota.Ru, забирай!