PrimaNota.ru - самый крупный в мире бесплатный архив песенных текстов, аккордов, табулатур и нот


Donnas - Play My Game - текст песни, таба, видео

Регистрация Запомнить меня
Войти через:  Facebook Google Twitter Vk Yandex Mail.ru

Donnas - Play My Game - текст песни, таба, видео

Печатать
Просмотров: 157
Уроки эстрадного вокала в Санкт-Петербурге
Play My Game
Guitar TAB by Mark


Intro:


-------10-------12------12--10--10----------|
-------10-------12------12--10--10----------|
--9/11------11^-----11^-------------11-9\---|
--------------------------------------------|
--------------------------------------------|
--------------------------------------------|


Verse part 1: (2x)

 C                               G           A# G
----------------------------------------------------------------|
----------------------------------------------------------------|
-5-------------------------------------------3------------------|
-5-5-7-5-5-5-7-5-5-5-7-5-5-5-7-5-------------3------------------|
-3-3-3-3-3-3-3-3-3-3-3-3-3-3-3-3-5-5-5-5-5---1--5-5-5-5-5--5--5-|
---------------------------------3-3-3-3-3------3-3-3-3-3--3--3-|


Verse part 2:

 D                       C
-------------------------------------------------|
-7-7-7-8-7--7-8--8--8-7--5-5-5-6-5--5-6--6--5-5--|
-7-7-7-7-7--7-7--7--7-7--5-5-5-5-5--5-5--5--5-5--|
-7-7-7-7-7--7-7--7--7-7--5-5-5-5-5--5-5--5--5-5--|
-5-5-5-5-5--5-5--5--5-5--3-3-3-3-3--3-3--3--3-3--|
-------------------------------------------------|


Chorus: (2x)

 G  A#  F              C           G
----------------------------------------------------|
----------------------------------------------------|
-----------------------5--5--5-5-5------------------|
-5------5--5-5-5-5-5-5-5--5--5-5-5-5-5-5-5-5-5-5-5--|
-5------5--5-5-5-5-5-5-3--3--3-3-3-5-5-5-5-5-5-5-5--|
-3--6~--3--3-3-3-3-3-3-------------3-3-3-3-3-3-3-3--|

 D                       C   A#  G
-------------------------------------------------|
-7-7-7-8-7--7-8--8--8-7--5-----------------------|
-7-7-7-7-7--7-7--7--7-7--5-----------------------|
-7-7-7-7-7--7-7--7--7-7--5-------5--5-5-5-5-5-5--|
-5-5-5-5-5--5-5--5--5-5--3-------5--5-5-5-5-5-5--|
-----------------------------6~--3--3-3-3-3-3-3--|


Intro
Verse Part 1 (2x)
Verse Part 2
Chorus (2x)


Solo:

--------------------------------------------------------------|
-----7--7---7-------------------------------7--7--7----7--9^--|
-----7--7---7-<9>-<9>-<9>--<7>-<9>-<7>------7--7--7----7--9^--|
-7h9------------------------------------7h9----------9--------|
--------------------------------------------------------------|
--------------------------------------------------------------|


-------10-------12------12--10--10-----------8--------------------------------|
-------10-------12------12--10--10-----------8--8--10^10------10^10^10^10^10--|
--9/11------11^-----11^-------------11---7/9----8--10^10-8-10-10^10^10^10^10--|
------------------------------------------------------------------------------|
------------------------------------------------------------------------------|
------------------------------------------------------------------------------|


 G  A# C                G           A# G
--------------------------------------------------------|
-------5--5-5-5-5-5-5-5---------------------------------|
----3--5--5-5-5-5-5-5-5-------------3-------------------|
-5--3--5--5-5-5-5-5-5-5-5-5-5-5-5---3--5-5-5-5-5-5-5-5--|
-5--1--3--3-3-3-3-3-3-3-5-5-5-5-5---1--5-5-5-5-5-5-5-5--|
-3----------------------3-3-3-3-3------3-3-3-3-3-3-3-3--|

 G  A# C                D           C  G           C D           C  G
----------------------------------------------------------------------------|
-------5--5-5-5-5-5-5-5-7-7-7-7-7---5--------------5-7-7-7-7-7---5----------|
----3--5--5-5-5-5-5-5-5-7-7-7-7-7---5--------------5-7-7-7-7-7---5----------|
-5--3--5--5-5-5-5-5-5-5-7-7-7-7-7---5--5-5-5-5-5---5-7-7-7-7-7---5--5-------|
-5--1--3--3-3-3-3-3-3-3-5-5-5-5-5---3--5-5-5-5-5---3-5-5-5-5-5---3--5-------|
-3-------------------------------------3-3-3-3-3--------------------3-------|


Verse Part 1 (2x)
Verse Part 2
Chorus (2x)


End:

3x:

-------10-------12------12--10--10--|
-------10-------12------12--10--10--|
--9/11------11^-----11^-------------|
------------------------------------|
------------------------------------|
------------------------------------|

4th time:

-------10-------12------12--10--10----------|
-------10-------12------12--10--10----------|
--9/11------11^-----11^-------------11-9\---|
--------------------------------------------|
--------------------------------------------|
--------------------------------------------|


 C          G
---------------|
---------------|
-5-------------|
-5----------5--|
-3----------5--|
------------3--|
Добавлено: 28.05.2012
Другие материалы по этой песне:
  • Аккорды и текст

Страница создана 11.05.2012
http://primanota.ru/donnas/play-my-game-chords.htm
Привет, Гость.
Предлагаем пройти революционный курс по гитаре.
Подарок от PrimaNota.Ru, забирай!