PrimaNota.ru - самый крупный в мире бесплатный архив песенных текстов, аккордов, табулатур и нот


Donnas - Perfect Stranger - бас-таба, видео

Регистрация Запомнить меня
Войти через:  Facebook Google Twitter Vk Yandex Mail.ru

Donnas - Perfect Stranger - бас-таба, видео

Печатать
Просмотров: 114
G|-----------------------------|
D|-----------------------------|
A|-555555555555555555555555555-|
D|-----------------------------|

G|-----------------------------|
D|-----------------------------|
A|-5----1---1--3x-3x-3x-3x-----|   X4
D|-----------------------------|

G|-----------------------------|
D|-----------------------------|
A|-5553333--5553333--1-01310---|   x2
D|-----------------------------|

G|-----------------------------|
D|-----------------------------|
A|-------5--33-----------5--11-|
D|-3333---------3333-----------|

G|-----------------------------|
D|-----------------------------|
A|-------5--33----------333-333|
D|-3333---------555555---------|

G|--------------------------------|
D|-------------23-----------------|
A|-5553333--5----3--111333-553555-|
D|--------------------------------|

G|--------------2----------------|
D|------------23-----------------|
A|-5553333--5-------111333-5535--|
D|-------------------------------|


G|-----------------------------|
D|-----------------------------|
A|-5553333--5553333--1-01310---|   x2
D|-----------------------------|

G|-----------------------------|
D|-----------------------------|
A|-------5--33-----------5--11-|
D|-3333---------3333-----------|

G|-----------------------------|
D|-----------------------------|
A|-------5--33----------333-333|
D|-3333---------555555---------|

G|--------------------------------|
D|-------------23-----------------|
A|-5553333--5----3--111333-553555-|
D|--------------------------------|

G|--------------2----------------|
D|------------23-----------------|
A|-5553333--5-------111333-5535--|
D|-------------------------------|

G|-----------------------------|
D|-33333-----------------------|
A|-------33333-11111-3-5-33----|
D|-----------------------------|

G|-----------------------------|
D|-33333-----------------------|
A|-------33333-1111111111------|
D|-----------------------------|

G|-----------------------------|
D|-----------------------------|
A|-5----1---1--3x-3x-3x-3x-----|   X4
D|-----------------------------|

G|-----------------------------|
D|-----------------------------|
A|-------5--33-----------5--11-|
D|-3333---------3333-----------|

G|-----------------------------|
D|-----------------------------|
A|-------5--33----------333-333|
D|-3333---------555555---------|

G|--------------------------------|
D|-------------23-----------------|
A|-5553333--5----3--111333-553555-|
D|--------------------------------|

G|--------------2----------------|
D|------------23-----------------|
A|-5553333--5-------111333-5535--|
D|-------------------------------|

G|--------------------------------|
D|-------------23-----------------|
A|-5553333--5----3--111333-553555-|
D|--------------------------------|

G|--------------2----------------|
D|------------23-----------------|
A|-5553333--5-------111333-5535--|
D|-------------------------------|
Добавлено: 16.05.2012
Другие материалы по этой песне:

Страница создана 16.05.2012
http://primanota.ru/donnas/perfect-stranger-chords.htm
Привет, Гость.
Предлагаем пройти революционный курс по гитаре.
Подарок от PrimaNota.Ru, забирай!