PrimaNota.ru - самый крупный в мире бесплатный архив песенных текстов, аккордов, табулатур и нот


Donnas - Little Boy - текст песни, таба, видео

Регистрация Запомнить меня
Войти через:  Facebook Google Twitter Vk Yandex Mail.ru

Donnas - Little Boy - текст песни, таба, видео

Печатать
Просмотров: 141
The Donnas - Little Boy

Intro:

  3 times:                 4th time:
 | A           F# D         E
-|------------------------|----------------------------------|
-|------------------------|----------------------------------|
-|----------------7--7-7--|----------------------------------|
-|-7-x-7-7--7\-4--7--7-7--|-9-9-9---------------9-----9---9--|
-|-7-x-7-7--7\-4--5--5-5--|-7-7-7---------------7-----7---7--|
-|-5-x-5-5--5\-2----------|-------0-0-0-0-0-0-0---0-0--------|
                                                  PM.

Verse part 1: (2x)

 A          E                    D          E
-----------------------------------------------------------------|
-----------------------------------------------------------------|
------------9--------------------7--7--7-7--9--------------------|
-7--7--7-7--9--9-11-9-12-9-11-9--7--7--7-7--9--9-11-9-12-9-11-9--|
-7--7--7-7--7--7--7-7--7-7--7-7--5--5--5-5--7--7--7-7--7-7--7-7--|
-5--5--5-5-------------------------------------------------------|

 D          E                    A           F# D
-------------------------------------------------------|
-------------------------------------------------------|
-7--7--7-7--9-----------------------------------7--7-7-|
-7--7--7-7--9--9-11-9-12-9-11-9--7-x-7-7--7\-4--7--7-7-|
-5--5--5-5--7--7--7-7--7-7--7-7--7-x-7-7--7\-4--5--5-5-|
---------------------------------5-x-5-5--5\-2---------|

1st time:

  A           F# D         E
-----------------------------------------------------------|
-----------------------------------------------------------|
-----------------7--7-7------------------------------------|
--7-x-7-7--7\-4--7--7-7---9-9-9---------------9-----9---9--|
--7-x-7-7--7\-4--5--5-5---7-7-7---------------7-----7---7--|
--5-x-5-5--5\-2-----------------0-0-0-0-0-0-0---0-0--------|
                                                  PM.

2nd time:

  A           F# D         A           F# D      A
------------------------------------------------------------------0--------|
--------------------------------------------------------------------2------|
-----------------7--7-7-------------------7--7-7----------------------2----|
--7-x-7-7--7\-4--7--7-7----7-x-7-7--7\-4--7--7-7-7-7-7-7-7-7-7-7-----------|
--7-x-7-7--7\-4--5--5-5----7-x-7-7--7\-4--5--5-5-7-7-7-7-7-7-7-7--------0--|
--5-x-5-5--5\-2------------5-x-5-5--5\-2---------5-5-5-5-5-5-5-5-----------|


Verse Part 2:

Guitar 1:
 D              G          B  A
--------------------------------------------------------------|
--------------------------------------------------------------|
-7--7-7-7-7-7-7-----------------------------------------------|
-7--7-7-7-7-7-7-5--5-5-5-5-9--7--7-7-7-7-7-7-7-7-7-7-7-7-7-7--|
-5--5-5-5-5-5-5-5--5-5-5-5-9--7--7-7-7-7-7-7-7-7-7-7-7-7-7-7--|
----------------3--3-3-3-3-7--5--5-5-5-5-5-5-5-5-5-5-5-5-5-5--|

Guitar 2:
 D              G             A
-2--------------3-------------0-------------------------------|
-3--------------3-------------2-------------------------------|
-2--------------0-------------2-------------------------------|
-0--------------0-------------2-------------------------------|
----------------2-------------0-------------------------------|
----------------3---------------------------------------------|


Guitar 1:
 B              D              E
----------------------------------------------------------------|
----------------------------------------------------------------|
-4--4-4-4-4-4-4-7--7-7-7-7-7-7-9-9-9-9-9-9-9-9-9-9-9-9-9-9-9-9--|
-4--4-4-4-4-4-4-7--7-7-7-7-7-7-9-9-9-9-9-9-9-9-9-9-9-9-9-9-9-9--|
-2--2-2-2-2-2-2-5--5-5-5-5-5-5-7-7-7-7-7-7-7-7-7-7-7-7-7-7-7-7--|
----------------------------------------------------------------|

Guitar 2:
 B              D              E
-2--------------2--------------4-4-5-5-4-4-5-5-4-5--5--5-4-4--|
-4--------------3--------------5-5-5-5-5-5-5-5-5-5--5--5-5-5--|
-4--------------2--------------4-4-4-4-4-4-4-4-4-4--4--4-4-4--|
-4--------------0---------------------------------------------|
-2------------------------------------------------------------|
--------------------------------------------------------------|

 E
-------------------------------|
-------------------------------|
-------------------------------|
-------------------9-----9--9--|
-------------------7-----7--7--|
-0-0-0-0-0-0-0-0-0---0-0-------|
                     PM.

Verse part 1 (one time, with 2nd ending)

Verse part 2

End:

 A          E                    D          E
-----------------------------------------------------------------|
-----------------------------------------------------------------|
------------9--------------------7--7--7-7--9--------------------|
-7--7--7-7--9--9-11-9-12-9-11-9--7--7--7-7--9--9-11-9-12-9-11-9--|
-7--7--7-7--7--7--7-7--7-7--7-7--5--5--5-5--7--7--7-7--7-7--7-7--|
-5--5--5-5-------------------------------------------------------|


 D          E                    A           F# D
-------------------------------------------------------|
-------------------------------------------------------|
-7--7--7-7--9-----------------------------------7--7-7-|
-7--7--7-7--9--9-11-9-12-9-11-9--7-x-7-7--7\-4--7--7-7-|
-5--5--5-5--7--7--7-7--7-7--7-7--7-x-7-7--7\-4--5--5-5-|
---------------------------------5-x-5-5--5\-2---------|


  A           F# D         A           F# D
--------------------------------------------------|
--------------------------------------------------|
-----------------7--7-7-------------------7--7-7--|
--7-x-7-7--7\-4--7--7-7----7-x-7-7--7\-4--7--7-7--|
--7-x-7-7--7\-4--5--5-5----7-x-7-7--7\-4--5--5-5--|
--5-x-5-5--5\-2------------5-x-5-5--5\-2----------|

  A           F# D  A
-----------------------------|
-----------------------------|
-----------------7-----------|
--7-x-7-7--7\-4--7--7-----7--|
--7-x-7-7--7\-4--5--7-----7--|
--5-x-5-5--5\-2-----5--8--5--|
            (slow)
Добавлено: 25.07.2012
Другие материалы по этой песне:
  • Аккорды и текст

Страница создана 11.03.2012
http://primanota.ru/donnas/little-boy-chords.htm
Привет, Гость.
Предлагаем пройти революционный курс по гитаре.
Подарок от PrimaNota.Ru, забирай!