PrimaNota.ru - самый крупный в мире бесплатный архив песенных текстов, аккордов, табулатур и нот


Donnas - Like An Animal - таба, видео

Регистрация Запомнить меня
Войти через:  Facebook Google Twitter Vk Yandex Mail.ru

Donnas - Like An Animal - таба, видео

Печатать
Просмотров: 118
Song: Like An Animal
Artist: The Donnas
Album: Bitchin'
Tuning: Standard
Tabbed By Iggy (reptiliahasnoend@yahoo.com or
midi_iggy@yahoo.com)

Opening
e---------------------------------|
B---------------------------------|
G-11-11--9-11--11-11--12---12--12-|
D-12-12-10-12--12-12--12---12--12-|
A-12-12-10-12--12-12--10---10--10-|
E-10-10--8-10--10-10--------------|X2

Verse
"I can't see you..."
e--------------|
B--------------|
G-7------------|
D-7--3---5--3--|
A-5--3---5--3--|
E----1---3--1--|

"Feel my breath..."
e--------------|
B--------------|
G-7--10--5-----|
D-7--10--5-----|
A-5---8--3-----|
E--------------|

Pre-Chorus
"Get it up..."
e----------------------|
B----------------------|
G----------------------|
D-3-3-5---5-5-5-5/7-7--|
A-3-3-5---5-5-5-5/7-7--|
E-1-1-3---3-3-3-3/5-5--|
          Pm****

"Don't look back..."
Guitar 1
e-----------------------|
B-----------------------|
G-----------------------|
D-8-8-8--8-10-10--------|
A-8-8-8--8-10-10--------|
E-6-6-6--6--8--8--------|

Guitar 2
e-----------------------|
B---------------6-5-----|
G-------------------5---|
D---------------------7-|
A-----------------------|
E-----------------------|


Chorus
"Whoa-oh Oh..."
e---------------------------------|
B---------------------------------|
G-7-7-7-7-5-5-5-5---------3-3-3-3-|
D-7-7-7-7-5-5-5-5-5-5-5-5-3-3-3-3-|
A-5-5-5-5-3-3-3-3-2-2-2-2-1-1-1-1-|
E---------------------------------|

"Whoa-oh Oh..."
e---------------------------------|
B---------------------------------|
G-7-7-7-7-------------------------|
D-7-7-7-7-3-3-3-3-5-5-5-5-3-3-3-3-|
A-5-5-5-5-3-3-3-3-5-5-5-5-3-3-3-3-|
E---------1-1-1-1-3-3-3-3-1-1-1-1-|

Opening again
e---------------------------------|
B---------------------------------|
G-11-11--9-11--11-11--12---12--12-|
D-12-12-10-12--12-12--12---12--12-|
A-12-12-10-12--12-12--10---10--10-|
E-10-10--8-10--10-10--------------|X2

Verse
"Just a drop..."
e--------------|
B--------------|
G-7------------|
D-7--3---5--3--|
A-5--3---5--3--|
E----1---3--1--|

"nothin' bites like I do..."
e--------------|
B--------------|
G-7--10--5-----|
D-7--10--5-----|
A-5---8--3-----|
E--------------|

Pre-Chorus
"Get it up..."
e----------------------|
B----------------------|
G----------------------|
D-3-3-5---5-5-5-5/7-7--|
A-3-3-5---5-5-5-5/7-7--|
E-1-1-3---3-3-3-3/5-5--|
          Pm****

"Take a bite..."
Guitar 1
e-----------------------|
B-----------------------|
G-----------------------|
D-8-8-8--8-10-10--------|
A-8-8-8--8-10-10--------|
E-6-6-6--6--8--8--------|

Guitar 2
e-----------------------|
B---------------6-5-----|
G-------------------5---|
D---------------------7-|
A-----------------------|
E-----------------------|


Chorus
"Whoa-oh Oh..."
e---------------------------------|
B---------------------------------|
G-7-7-7-7-5-5-5-5---------3-3-3-3-|
D-7-7-7-7-5-5-5-5-5-5-5-5-3-3-3-3-|
A-5-5-5-5-3-3-3-3-2-2-2-2-1-1-1-1-|
E---------------------------------|

"Whoa-oh Oh..."
e---------------------------------|
B---------------------------------|
G-7-7-7-7-------------------------|
D-7-7-7-7-3-3-3-3-5-5-5-5-3-3-3-3-|
A-5-5-5-5-3-3-3-3-5-5-5-5-3-3-3-3-|
E---------1-1-1-1-3-3-3-3-1-1-1-1-|

Bridge
"Na-nah nah naah..."
e-----------------------------------|
B-----------------------------------|
G-5-5-7----5-5-7-10-10\5--5--5-5-5--|
D-5-5-7----5-5-7-10-10\5--5--5-5-5--|
A-3-3-5----3-3-5--8--8\3--3--3-3-3--|X2
E-----------------------------------|

"Wild in the streets..."
e----------------------------------|
B----------------------------------|
G-7-7-7-7-10-10\5-5-5-5---------5--|
D-7-7-7-7-10-10\5-5-5-5-3-3-5-5-5--|
A-5-5-5-5--8--8\3-3-3-3-3-3-5-5-3--|X2
E-----------------------1-1-3-3----|

Solo
Guitar 1
e-------------------------------|
B-------------------------------|
G-7-----------------------------|
D-7----------------3------------|
A-5----------------3------------|
E------------------1------------|

Guitar 2
e-------------------------------|
B----15----15----15-18-17--15---|
G-14----14----14----------------|
D-------------------------------|
A-------------------------------|
E-------------------------------|

Guitar 1
e----------------------------------------|
B----------------------------------------|
G----------------------------------------|
D-5-------------------3------------------|
A-5-------------------3------------------|
E-3-------------------1------------------|

Guitar 2
e-------------------------------13-12----|
B----15----15----15----13-15----------13-|
G-14----14----14----14-------14----------|
D----------------------------------------|
A----------------------------------------|
E----------------------------------------|

Guitar 1
e-------------------------------|
B-------------------------------|
G-7-----------------------------|
D-7----------------3------------|
A-5----------------3------------|
E------------------1------------|

Guitar 2
e-------------------------------|
B----15----15----15-18-17-------|
G-14----14----14-----------17---|
D-------------------------------|
A-------------------------------|
E-------------------------------|

Guitar 1
e----------------------------------------------------|
B----------------------------------------------------|
G-2--------------------------------------------------|
D-2--------------------------------------------------|
A-0--------------------------------------------------|
E----------------------------------------------------|

Guitar 2
e----------17----------------------17-------20^(22)--|
B-18-20-18----20-18----18----20-18----20-18----------|
G-------------------19----19-------------------------|
D----------------------------------------------------|
A----------------------------------------------------|
E----------------------------------------------------|

Chorus
"woah oh oh..."
e-----------------------------------|
B-----------------------------------|
G----r-------r----r-----------------|
D-12-e-12-10-e----e-8-8-8-8-8-8-8-8-|
A-12-s-12-10-s-10-s-8-8-8-8-8-8-8-8-|
E-10-t-10--8-t--7-t-6-6-6-6-6-6-6-6-|

New Chorus
"Woah oh oh..."
e----------------------------------|
B----------------------------------|
G-7-7-7-7-10-10\5-5-5-5---------5--|
D-7-7-7-7-10-10\5-5-5-5-3-3-5-5-5--|
A-5-5-5-5--8--8\3-3-3-3-3-3-5-5-3--|X3
E-----------------------1-1-3-3----|

Outro
Guitar 1
e---------------------------------|
B---------------------------------|
G-11-11--9-11--11-11--12---12--12-|
D-12-12-10-12--12-12--12---12--12-|
A-12-12-10-12--12-12--10---10--10-|
E-10-10--8-10--10-10--------------|

Guitar 2
e-17-17-17-17-17-17-17-17-17-17-17-|
B----------------------------------|
G----------------------------------|
D----------------------------------|
A----------------------------------|
E----------------------------------|

Guitar 1
e---------------------------------|
B---------------------------------|
G-11-11--9-11--11-11--12---12--12-|
D-12-12-10-12--12-12--12---12--12-|
A-12-12-10-12--12-12--10---10--10-|
E-10-10--8-10--10-10--------------|

Guitar 2
e-20-17-17-17-20-17-17-20-17-20-17-|
B----------------------------------|
G----------------------------------|
D----------------------------------|
A----------------------------------|
E----------------------------------|

Guitar 1
e-----------------------------|
B-----------------------------|
G-5-5-7----5-5-7-10-10\5--5---|
D-5-5-7----5-5-7-10-10\5--5---|
A-3-3-5----3-3-5--8--8\3--3---|
E-----------------------------|

Guitar 2
e-20^(22)----------20~~~~~~---|
B-----------------------------|
G-----------------------------|
D-----------------------------|
A-----------------------------|
E-----------------------------|

That's that. again, complaints, comments, whatever, 
you can send them to the address stated above.
Добавлено: 21.04.2012
Другие материалы по этой песне:

Страница создана 02.04.2012
http://primanota.ru/donnas/like-an-animal-chords.htm
Привет, Гость.
Предлагаем пройти революционный курс по гитаре.
Подарок от PrimaNota.Ru, забирай!