PrimaNota.ru - самый крупный в мире бесплатный архив песенных текстов, аккордов, табулатур и нот


Donnas - Its So Hard - текст песни, таба, видео

Регистрация Запомнить меня
Войти через:  Facebook Google Twitter Vk Yandex Mail.ru

Donnas - Its So Hard - текст песни, таба, видео

Печатать
Просмотров: 175
-----------------------------------------------------------------------------
		             IT'S SO HARD - THE DONNAS
-----------------------------------------------------------------------------
Tabbed By: Nicholas Bradley
Email: RDK1LL@Hotmail.com
Comment: A short upbeat son from the "GOLD MEDAL" album.
	 This song took about half an hour to tab so it must be easy to play.
         Im not %100 sure about the solo but "close enough's near enough".

Intro/Main Riff:

e|---------------10----------------------|---------------10---------7-7-7-7-|
B|-9---9---------------10----------------|-9---9---------------10---8-8-8-8-|
G|-9---9----9/11----11-----7/9--9--9-----|-9---9----9/11----11------7-7-7-7-|
D|-9---9-------------------7/9--9--9-----|-9---9----------------------------|
A|-7---7-------------------5/7--7--7-----|-7---7----------------------------|
E|---------------------------------------|----------------------------------|



e|---------------10----------------------|---------------10---------7-7-7-7-|
B|-9---9---------------10----------------|-9---9---------------10---8-8-8-8-|
G|-9---9----9/11----11-----7/9--9--9-----|-9---9----9/11----11------7-7-7-7-|
D|-9---9-------------------7/9--9--9-----|-9---9----------------------------|
A|-7---7-------------------5/7--7--7-----|-7---7----------------------------|
E|---------------------------------------|----------------------------------|

Verse 1:
       Im not obsessed I could care less    I just want to get you undressed

e|---------------10----------------------|---------------10---------7-7-7-7-|
B|-9---9---------------10----------------|-9---9---------------10---8-8-8-8-|
G|-9---9----9/11----11-----7/9--9--9-----|-9---9----9/11----11------7-7-7-7-|
D|-9---9-------------------7/9--9--9-----|-9---9----------------------------|
A|-7---7-------------------5/7--7--7-----|-7---7----------------------------|
E|---------------------------------------|----------------------------------|

  the less you talk the more you say       dont let the words get in the way

e|---------------10----------------------|---------------10-----------------|
B|-9---9---------------10----------------|-9---9---------------10-----------|
G|-9---9----9/11----11-----7/9--9--9-----|-9---9----9/11----11--------------|
D|-9---9-------------------7/9--9--9-----|-9---9----------------------------|
A|-7---7-------------------5/7--7--7-----|-7---7----------------------------|
E|---------------------------------------|------------------------------3-2-|

Chorus:
  its so hard to be on your own               when your holding it all alone

e|---------------------------------------|----------------------------------|
B|---------------------------------------|----------------------------------|
G|---------------------------------------|----------------------------------|
D|---------------------------------------|-5---5----------------------------|
A|---------------2-3---3-5-5-7-7-8-------|-------8-8-7-7-5-3---3-2-2--------|
E|-1---1-3-3-5-5-------------------------|---------------------------5-5-3--|

  and you've been working it to the bone 

e|---------------------------------------|
B|---------------------------------------|
D|---------------------------------------|
A|---------------2-3---3-5-5-3-3-2-------|
E|-1---1-3-3-5-5-------------------------|(end chorus)

  its so hard                             its so hard

e|---------------10----------------------|---------------10---------7-7-7-7-|
B|-9---9---------------10----------------|-9---9---------------10---8-8-8-8-|
G|-9---9----9/11----11-----7/9--9--9-----|-9---9----9/11----11------7-7-7-7-|
D|-9---9-------------------7/9--9--9-----|-9---9----------------------------|
A|-7---7-------------------5/7--7--7-----|-7---7----------------------------|
E|---------------------------------------|----------------------------------|

Verse 2:
  your just another guy with a wondering eye            and Im just a gemini

e|---------------10----------------------|---------------10---------7-7-7-7-|
B|-9---9---------------10----------------|-9---9---------------10---8-8-8-8-|
G|-9---9----9/11----11-----7/9--9--9-----|-9---9----9/11----11------7-7-7-7-|
D|-9---9-------------------7/9--9--9-----|-9---9----------------------------|
A|-7---7-------------------5/7--7--7-----|-7---7----------------------------|
E|---------------------------------------|----------------------------------|

               I dont see whats the harm        if we dont set off the alarm

e|---------------10----------------------|---------------10-----------------|
B|-9---9---------------10----------------|-9---9---------------10-----------|
G|-9---9----9/11----11-----7/9--9--9-----|-9---9----9/11----11--------------|
D|-9---9-------------------7/9--9--9-----|-9---9----------------------------|
A|-7---7-------------------5/7--7--7-----|-7---7----------------------------|
E|---------------------------------------|------------------------------3-2-|

Chorus:
  its so hard to be on your own               when your holding it all alone

e|---------------------------------------|----------------------------------|
B|---------------------------------------|----------------------------------|
G|---------------------------------------|----------------------------------|
D|---------------------------------------|-5---5----------------------------|
A|---------------2-3---3-5-5-7-7-8-------|-------8-8-7-7-5-3---3-2-2--------|
E|-1---1-3-3-5-5-------------------------|---------------------------5-5-3--|

  and you've been working it to the bone 

e|---------------------------------------|
B|---------------------------------------|
D|---------------------------------------|
A|---------------2-3---3-5-5-3-3-2-------|
E|-1---1-3-3-5-5-------------------------|(end chorus)

Solo:
  its so hard                             its so hard
(rythym guitar)
e|---------------10----------------------|---------------10-----------------|
B|-9---9---------------10----------------|-9---9---------------10-----------|
G|-9---9----9/11----11-----7/9--9--9-----|-9---9----9/11----11--------------|
D|-9---9-------------------7/9--9--9-----|-9---9----------------------------|
A|-7---7-------------------5/7--7--7-----|-7---7----------------------------|
E|---------------------------------------|------------------------------3-2-|
(lead Guitar)
e|---------------------------------------|----------------------------------|
B|---------------------------------------|----------------------------------|
G|---------------------------------------|------------------------------7-6-|
D|---------------------------------------|----------------------------------|
A|---------------------------------------|----------------------------------|
E|---------------------------------------|----------------------------------|



e|---------------------------------------|----------------------------------|
B|---------------------------------------|----------------------------------|
G|---------------------------------------|----------------------------------|
D|---------------------------------------|-5---5----------------------------|
A|---------------2-3---3-5-5-7-7-8-------|-------8-8-7-7-5-3---3-2-2--------|
E|-1---1-3-3-5-5-------------------------|---------------------------5-5-3--|

e|---------------------------------------|----------------------------------|
B|---------------------------------------|----------------------------------|
G|-5---5-5----5>4-0-5--5--5--------------|---------------5------------------|
D|---------------------------------/7----|-7----/9---5-------7-7\5-5/7-7-7--|
A|---------------------------------------|----------------------------------|
E|---------------------------------------|----------------------------------|

                                            Dont mind if I do
				             PM.   .         . .   .
e|---------------------------------------|----------------------------------|
B|---------------------------------------|-----------------2-----2---2-2----|
D|---------------------------------------|-2-----2---2-2---2-----2---2-2----|
A|---------------2-3---3-5-5-3-3-2-------|-2-----4---2-2---0-0-0-0-0-0-0----|
E|-1---1-3-3-5-5-------------------------|-0-0-0-0-0-0-0--------------------|
                                                                   (end solo)
e|------------------------5--------------|----------------------------------|
B|----------------8----------8--5---(5)--|----------------------------------|
G|------------7/9---7\5------------7<9---|-9>7p5----------------------------|
D|-7\5-5---5------------7----------------|-------7--------------------------|
A|-------7-------------------------------|----------------------------------|
E|---------------------------------------|----------------------------------|


   theres something I wanna show you        Dont mind if you dont
     PM.   .         . .     .               . .   .         . .   .
e|---------------------------------------|----------------------------------|
B|---------------------------------------|----------------------------------|
G|---------------------------------------|-----------------2-----2---2-2----|
D|-3-----3---3-3--/5-5-5-7-5-5-4---------|-2-----2---2-2---2-----2---2-2----|
A|-3-----3---3-3--/3-3-3-3-3-3-2---------|-2-----4---2-2---0-0-0-0-0-0-0----|
E|-1-1-1-1-1-1-1-------------------------|-0-0-0-0-0-0-0--------------------|

    remember this baby cause I wont    
     PM.   .         . .     .             
e|---------------------------------------|
B|---------------------------------------|
G|---------------------------------------|
D|-3-----3---3-3--/5-5-5-7-5-5-4---------|
A|-3-----3---3-3--/3-3-3-3-3-3-2---------|
E|-1-1-1-1-1-1-1-------------------------|

Chorus:

  its so hard to be on your own        when your holding it all alone      
  
e|----------------------------------|---------------------------------------|
B|----------------------------------|---------------------------------------|
G|-----------------2-----2---2-2----|---------------------------------------|
D|-2-----2---2-2---2-----2---2-2----|-3-----3---3-3--/5-----7-5---4---------|
A|-2-----4---2-2---0-----0---0-0----|-3-----3---3-3--/3-----3-3---2---------|
E|-0-----0---0-0--------------------|-1-----1---1-1-------------------------|

  and you've been working it to the bone    its so hard          its so hard

e|-------------------------------------|------------------------------------|
B|-------------------------------------|------------------------------------|
G|-----------------2-----2---2-2-------|------------------------------------|
D|-2-----2---2-2---2-----2---2-2-------|-3-----3---3-3--/5-5-5-7-5-5-4------|
A|-2-----4---2-2---0-----0---0-0-------|-3-----3---3-3--/3-3-3-3-3-3-2------|
E|-0-----0---0-0-----------------------|-1-1-1-1-1-1-1----------------------|
								(end chorus)
                           
  its so hard                             its so hard

e|---------------10----------------------|---------------10---------7-7-7-7-|
B|-9---9---------------10----------------|-9---9---------------10---8-8-8-8-|
G|-9---9----9/11----11-----7/9--9--9-----|-9---9----9/11----11------7-7-7-7-|
D|-9---9-------------------7/9--9--9-----|-9---9----------------------------|
A|-7---7-------------------5/7--7--7-----|-7---7----------------------------|
E|---------------------------------------|----------------------------------|

  its so hard                             its so hard

e|---------------10----------------------|---------------10-----------------|
B|-9---9---------------10----------------|-9---9---------------10--(10)-----|
G|-9---9----9/11----11-----7/9--9--9-----|-9---9----9/11----11--------------|
D|-9---9-------------------7/9--9--9-----|-9---9----------------------------|
A|-7---7-------------------5/7--7--7-----|-7---7----------------------------|
E|---------------------------------------|----------------------------------|



| /  slide up
| \  slide down
| h  hammer-on
| p  pull-off
| ~  vibrato
| +  harmonic
| x  Mute note
| () Let Ring
=============================================================================
Добавлено: 23.04.2012
Другие материалы по этой песне:
  • Аккорды и текст

Страница создана 23.04.2012
http://primanota.ru/donnas/its-so-hard-chords.htm
Привет, Гость.
Предлагаем пройти революционный курс по гитаре.
Подарок от PrimaNota.Ru, забирай!