PrimaNota.ru - самый крупный в мире бесплатный архив песенных текстов, аккордов, табулатур и нот


Donnas - I Dont Wanna Go To School - аккорды и текст, видео

Регистрация Запомнить меня
Войти через:  Facebook Google Twitter Vk Yandex Mail.ru

Donnas - I Dont Wanna Go To School - аккорды и текст, видео

Печатать
Просмотров: 407
Уроки эстрадного вокала в Санкт-Петербурге
I Dont Wanna Go To School
Donnas
======================================
Artist:    The Donnas
Song:      I Don't Wanna Got To School
Album:     The Donnas
Tabbed by: Death Smile
======================================

Nice song, very easy to play, The Donnas just
kick ass! Now stop reading, let's learn to play!
Let's get started:

Intro
-----
Play it 2 times a little fast
e|------------------------------------------
B|------------------------------------------
G|-----------9-9-9-9-----------11-11-11-11--
D|--9-9-9-9--9-9-9-9--9-9-9-9--11-11-11-11--
A|--9-9-9-9--7-7-7-7--9-9-9-9--9--9--9--9---
E|--7-7-7-7-----------7-7-7-7---------------

And this 4 times
e|------------------------------------------	
B|------------------------------------------
G|--10/11--11-11-11-11----------------------
D|--10/11--11-11-11-11----------------------
A|--8-/9---9--9--9--9-----------------------
E|------------------------------------------

Verse
-----
"I don^Òt wanna wanna go to school no more"
e|------------------------------------------
B|------------------------------------------
G|-----------------9-9-9-9--11-11-11-11-----
D|--9-9-9-9-9-9-9--9-9-9-9--11-11-11-11-----
A|--9-9-9-9-9-9-9--7-7-7-7--9--9--9--9------
E|--7-7-7-7-7-7-7---------------------------

The last one is like this (at 0:31)
e|------------------------------------------
B|------------------------------------------
G|-----------9-9-9-9------------------------
D|--9-9-9-9--9-9-9-9--9-9-9-9-9-9-9---------
A|--9-9-9-9--7-7-7-7--9-9-9-9-9-9-9---------
E|--7-7-7-7-----------7-7-7-7-7-7-7---------

Chorus
------
"No more science, history"
e|------------------------------------------
B|------------------------------------------
G|--9--9-9-9-9--------------9--9-9-9-9------
D|--9--9-9-9-9--9--9-9-9-9--9--9-9-9-9------
A|--7--7-7-7-7--9--9-9-9-9--7--7-7-7-7------
E|--------------7--7-7-7-7------------------
    \___2x___/  \___2x___/  \___2x___/

"I don^Òt wanna wanna go to school no more"
Play this riff 3 times
e|------------------------------------------
B|------------------------------------------
G|--11-11-11-11--9-9-9-9--------------------
D|--11-11-11-11--9-9-9-9--9-9-9-9-9-9-9-----
A|--9--9--9--9---7-7-7-7--9-9-9-9-9-9-9-----
E|------------------------7-7-7-7-7-7-7-----

Then Play this (at 0:48)
e|------------------------------------------
B|------------------------------------------
G|---------------------11-11-11-11-11-------
D|--9/11--11-11-11-11--11-11-11-11-11-------
A|--9/11--11-11-11-11--9--9--9--9--9--------
E|--7/9---9--9--9--9------------------------

Play the 1st riff o the verse 4 times, then this (at 1:03)
e|------------------------------------------
B|------------------------------------------
G|-----------9-9-9-9------------------------
D|--9-9-9-9--9-9-9-9--9-9-9-9-9-9-9---------
A|--9-9-9-9--7-7-7-7--9-9-9-9-9-9-9---------
E|--7-7-7-7-----------7-7-7-7-7-7-7---------

then this 4 times
e|------------------------------------------
B|------------------------------------------
G|--10/11--11-11-11-11----------------------
D|--10/11--11-11-11-11----------------------
A|--8-/9---9--9--9--9-----------------------
E|------------------------------------------

Well, now that you know all the riffs, you can figure out the
song estructure, go for it! It's not hard.

The Donnas is a pretty cool band, you can visit the official
web site of the band here: http://www.thedonnas.com

And If you have something to tell me send me a mail:
death_smile_eu@yahoo.com.br

Thanks
Death Smile

     
Добавлено: 06.11.2013
Другие материалы по этой песне:
  • Аккорды и текст

Страница создана 13.09.2013
http://primanota.ru/donnas/i-dont-wanna-go-to-school-chords.htm
Привет, Гость.
Предлагаем пройти революционный курс по гитаре.
Подарок от PrimaNota.Ru, забирай!