PrimaNota.ru - самый крупный в мире бесплатный архив песенных текстов, аккордов, табулатур и нот


Donnas - Hyperactive - текст песни, таба, видео

Регистрация Запомнить меня
Войти через:  Facebook Google Twitter Vk Yandex Mail.ru

Donnas - Hyperactive - текст песни, таба, видео

Печатать
Просмотров: 121
Donnas - Hyperactive

Verse 1:

 B
----------------------------------------------------------------------------------|
----------------------------------------------------------------------------------|
----------------------------------------------------------------------------------|
-9--------------------------------------------------------------------------------|
-9--------9-9-11-9-9-11-11-9-11-9-9-11-11-9-11-9-9-11-11-9-11-9-9-11-11-9-11-9-9--|
-7--------7-7--7-7-7--7--7-7--7-7-7--7--7-7--7-7-7--7--7-7--7-7-7--7--7-7--7-7-7--|


         E     D    E     D
-----------------------------|
-----------------------------|
---------9---9-7----9---9-7--|
---------9---9-7----9---9-7--|
-9-9/----7---7-5----7---7-5--|
-7-7/-\----------------------|

Chorus 1 (2x):

 B                           D             B
-----------------------------------------------------------------|
-----------------------------------------------------------------|
-----------------------------------------------------------------|
-----------------------------7-7-9-7-9-7-7-----------------------|
-9-9--9-9--9--9-9--9-9-9-9-9-5-5-5-5-5-5-5-9--9--9-9--9-9-9------|
-7-7--7-7--7--7-7--7-7-7-7-7---------------7--7--7-7--7-7-7------|


                       1st time:           2nd time:
 E                    |  A     D          | A        D
----------------------|-------------------|-------------|
-9--9-10-9--9--9-10-9-|-------------------|-------------|
-9--9--9-9--9--9--9-9-|--------7--7--7-7--|----------7--|
-9--9--9-9--9--9--9-9-|--7---7-7--7--7-7--|-7--7--7--7--|
-7--7--7-7--7--7--7-7-|--7---7-5--5--5-5--|-7--7--7--5--|
----------------------|--5---5------------|-5--5--5-----|


Verse 2 & Chorus 2 (repeat 1)


Solo:


----------------------------------------------------|
-/8-8-8-8-8---/8-8-8-8-8---/8-8-8-8-8-8-------------|
-/9-9-9-9-9---/9-9-9-9-9---/9-9-9-9-9-9-9-7---------|
--------------------------------------------9-7-9~--|
----------------------------------------------------|
----------------------------------------------------|


---------------------------------------------------------------------|
-/8-8-8-8-8---/8-8-8-8-8--10p9p8-10p9p8-10p9p8-10^10-10-10-10-10/12--|
-/9-9-9-9-9---/9-9-9-9-9------------------------------9--9--9--9/11--|
---------------------------------------------------------------------|
---------------------------------------------------------------------|
---------------------------------------------------------------------|


Verse 3 (repeat of 1)


Chorus 3:


----7----7----7----7----7---------------------------|
-7--7-7--7-7--7-7--7-7--7--9^-9^-9^9-7-9^-9^-9---7--|
-9^---9^---9^---9^---9^----9^-9^-9^9-7-9^-9^-9^9-7--|
----------------------------------------------------|
----------------------------------------------------|
----------------------------------------------------|

                       1st time:           2nd time:
 E                    |  A     D          | A        D
----------------------|-------------------|-------------|
-9--9-10-9--9--9-10-9-|-------------------|-------------|
-9--9--9-9--9--9--9-9-|--------7--7--7-7--|----------7--|
-9--9--9-9--9--9--9-9-|--7---7-7--7--7-7--|-7--7--7--7--|
-7--7--7-7--7--7--7-7-|--7---7-5--5--5-5--|-7--7--7--5--|
----------------------|--5---5------------|-5--5--5-----|
Добавлено: 16.03.2012
Другие материалы по этой песне:
  • Аккорды и текст

Страница создана 16.03.2012
http://primanota.ru/donnas/hyperactive-chords.htm
Привет, Гость.
Предлагаем пройти революционный курс по гитаре.
Подарок от PrimaNota.Ru, забирай!