PrimaNota.ru - самый крупный в мире бесплатный архив песенных текстов, аккордов, табулатур и нот


Donnas - Hey Im Gonna Be Your Girl - текст песни, таба, видео

Регистрация Запомнить меня
Войти через:  Facebook Google Twitter Vk Yandex Mail.ru

Donnas - Hey Im Gonna Be Your Girl - текст песни, таба, видео

Печатать
Просмотров: 144
-------------------------------------------------------------------------------
                             Hey, I'm gonna be your girl - Donnas
-------------------------------------------------------------------------------
Tabbed by: Lew
Email: Lewis@togneri3082.fslife.co.uk

Tuning: Standard

Intro
e|----------------------------------------------------------------------------------------------|
B|----------------------------------------------------------------------------------------------|
G|-------9------------------------------9---------------------------11-11-11-11-11-11-11--------|
D|--7----9----9-9-9-9-9-9-9--------7----9----9-9-9-9-9-9-9-9-9------11-11-11-11-11-11-11--------|
A|--7----7----9-9-9-9-9-9-9--------7----7----9-9-9-9-9-9-9-9-9------9--9--9--9--9--9--9---------|
E|--5---------7-7-7-7-7-7-7--------5---------7-7-7-7-7-7-7-7-7----------------------------------|

Verse
e|----------------------------------------------------------------------------------------------|
B|----------------------------------------------------------------------------------------------|
G|----------------------------------------------------------------------------------------------|
D|--9-9-9-9-9-9-9-9-9-9----7-7-7-7----9-9-9-9-9-9-9-9-9-9----7-7-7-7----9-9-9-9-9-9-------------|
A|--9-9-9-9-9-9-9-9-9-9----7-7-7-7----9-9-9-9-9-9-9-9-9-9----7-7-7-7----9-9-9-9-9-9-------------|
E|--7-7-7-7-7-7-7-7-7-7----5-5-5-5----7-7-7-7-7-7-7-7-7-7----5-5-5-5----7-7-7-7-7-7-------------|

Chorus
e|----------------------------------------------------------------------------------------------|
B|----------------------------------------------------------------------------------------------|
G|--9-9-9-9---------------9-9-9-9---------------9-9-9-9-----------------------------------------|
D|--9-9-9-9----9-9-9-9----9-9-9-9----9-9-9-9----9-9-9-9----9-9-9-9------------------------------|
A|--7-7-7-7----9-9-9-9----7-7-7-7----9-9-9-9----7-7-7-7----9-9-9-9------------------------------|
E|-------------7-7-7-7---------------7-7-7-7---------------7-7-7-7------------------------------|

e|----------------------------------------------------------------------------------------------|
B|----------------------------------------------------------------------------------------------|
G|----------------------------------------------------------------------------------------------|
D|--7-7-7-7----9-9-9-9----7-7-7-7----9-9-9-9----------------------------------------------------|
A|--7-7-7-7----9-9-9-9----7-7-7-7----9-9-9-9----------------------------------------------------|
E|--5-5-5-5----7-7-7-7----5-5-5-5----7-7-7-7----------------------------------------------------|

Play Verse and then Chorus again

Bridge
e|----------------------------------------------------------------------------------------------|
B|----------------------------------------------------------------------------------------------|
G|--11-11-11-11-11-11-11--------------------------------------7-7-7-7----9-9-9-9----11-11-11-11-|
D|--11-11-11-11-11-11-11----7-7-7-7-7-7-7----9-9-9-9-9-9-9----7-7-7-7----9-9-9-9----11-11-11-11-|
A|--9--9--9--9--9--9--9-----7-7-7-7-7-7-7----9-9-9-9-9-9-9----5-5-5-5----7-7-7-7----9--9--9--9--|
E|--------------------------5-5-5-5-5-5-5----7-7-7-7-7-7-7--------------------------------------|

Then play the Intro, Verse and end with the Chorus again :)
Добавлено: 24.03.2012
Другие материалы по этой песне:
  • Аккорды и текст

Страница создана 24.03.2012
http://primanota.ru/donnas/hey-im-gonna-be-your-girl-chords.htm
Привет, Гость.
Предлагаем пройти революционный курс по гитаре.
Подарок от PrimaNota.Ru, забирай!