PrimaNota.ru - самый крупный в мире бесплатный архив песенных текстов, аккордов, табулатур и нот


Donnas - Have You No Pride - текст песни, таба, видео

Регистрация Запомнить меня
Войти через:  Facebook Google Twitter Vk Yandex Mail.ru

Donnas - Have You No Pride - текст песни, таба, видео

Печатать
Просмотров: 145
Уроки эстрадного вокала в Санкт-Петербурге
Авторы: Allison Robertson, Torry Castellano, Maya Ford, Brett Anderson

 Have You No Pride - The Donnas



Tabbed by Poppyrocks

Tuning : Standard



 Intro 1st section
      (with feedback)
e|---------------------------------------------------------------------------|
B|----14----------------12--------------5-----------9------------------------|
G|----14----------------12--------------5-----------9------------------------|
D|----14----------------12--------------5-----------9------------------------|
A|----12----------------10--------------3-----------7------------------------|
E|---------------------------------------------------------------------------|

e|---------------------------------------------------------------------------|
B|----14---------------12---------------5------------9--10--10--9--9---------|
G|----14---------------12---------------5------------9--9---9---9--9---------|
D|----14---------------12---------------5------------9--9---9---9--9---------|
A|----12---------------10---------------3------------7--7---7---7--7---------|
E|---------------------------------------------------------------------------|
  Intro 2nd section
e|---------------------------------------------------------------------------|
B|----14--15--15--14-14------12---13--13--12-12--------------------10-----9--|
G|----14--14--14--14-14------12---12--12--12-12------5-----7-x--9---9-----9--|
D|----14--14--14--14-14------12---12--12--12-12------5-x3--7-x--9---9-x3--9--|
A|----12--12--12--12-12------10---10--10--10-10------3-----5-x--7---7-----7--|
E|---------------------------------------------------------------------------|

e|-------------------------------------------------------------------12------|
B|---14--15--15--14-14------12--13--13--12-12--------------------------------|
G|---14--14--14--14-14------12--12--12--12-12-------5-----7-x--9-----9--x4---|
D|---14--14--14--14-14------12--12--12--12-12-------5--x3-7-x--9-----9-------|
A|---12--12--12--12-12------10--10--10--10-10-------3-----5-x--7-----7-------|
E|---------------------------------------------------------------------------|
 Verse 1
e|---------------------------------------------------------------------------|
B|---------------------------------------------------------------------------|
G|--------------------------------10--------12-------------------------------|
D|---7--------10------12----------10--x4----12---x4--------------------------|
A|---7--x12---10--x4--12---x8-----8---------10-------------------------------|
E|---5--------8-------10-----------------------------------------------------|
    Palm mute PM      PM          PM        PM
e|---------------------------------------------------------------------------|
B|---------------------------------------------------------------------------|
G|-------------------------------10--10--10--10--10--10----------------------|
D|---7-------10-------12---------10--10--10--10--10--10----------------------|
A|---7--x12--10--x4---12---x8----8---8---8---8---8---8-----------------------|
E|---5-------8--------10-----------------------------------------------------|
     PM      PM       PM

 Chorus (same as intro 2nd section)

 pre verse 
e|---------------------------------------------------------------------------|
B|---------------------------------------------------------------------------|
G|------------------------------10-------12----------------------------------|
D|--7--------10-------12--------10--x5---12----------------------------------|
A|--7--x8----10--x2---12--x6----8--------10----------------------------------|
E|--5--------8--------10-----------------------------------------------------|

 Verse 2
e|-------------------------------------------------13--------------15--------|
B|-----------------------------------------------------13-------------15-----|
G|--------------------------------------------10-----------14-/-16-------16--|
D|--7--7--7------7---10-----12--12--12--------10-----------------------------|
A|--7--7--7--x3--7---10-----12--12--12--x2----8------------------------------|
E|--5--5--5----- 5---8------10--10--10---------------------------------------|
    PM PM                   PM  PM

e|---------------------------------------------------------------------------|
B|---------------------------------------------------------------------------|
G|---------------------------------------------10----------------------------|
D|--7-7--7------7---10------12--12--12---------10--x6------------------------|
A|--7-7--7--x3--7---10------12--12--12--x2-----8-----------------------------|
E|--5-5--5------5---8-------10--10--10---------------------------------------|
   PM PM                    PM  PM

CHORUS

Pre verse

Solo

e|--------------------------------------------------------10-----------------|
B|----17----20-17------------------------ 12----10----15------13-----12------|
G|----19b21----21br19---17----------13----------12b14---------15b17--14b16~~~|
D|---------------------------13h14-------------------------------------------|
A|---------------------------------------------------------------------------|
E|---------------------------------------------------------------------------|

e|---------------------------------------------------------------------------|
B|-------------------------5------------5----8-----5-------------------------|
G|---------------------5---7b9br7-5--7--7b9--------7b9br7--5-----------------|
D|---------------5--7-----------------------------------------7--------------|
A|---0--3--5--7--------------------------------------------------------------|
E|---------------------------------------------------------------------------|

e|---------------------------------------------------------------------------|
B|---5-----------------------------------------------------------------------|
G|---7b9br7--5-----4---------------------------------------------------------|
D|--------------7-----7---5--------------------------------------------------|
A|----------------------------7----------------------------------------------|
E|---------------------------------------------------------------------------|

 Verse 1 riff

Chorus
 
guitar 1 Pre verse

guitar 2 outro solo

e|---------------------------------------------------------------------------|
B|-----------5-----------------------------10--------------------------------|
G|------5h7--7b9~~~~~br7-5--------10h12----12b14~~~~~~~~~~-------------------|
D|---7----------------------7/12---------------------------------------------|x3
A|---------------------------------------------------------------------------|
E|---------------------------------------------------------------------------|
guitar 1 ends
e|---------------------------------------------------------------------------|
B|---------------------------------------------------------------------------|
G|---------------------------------------------------------------------------|
D|------------7--------------------------------------------------------------|
A|------------7--x6----------------------------------------------------------|
E|------------5--------------------------------------------------------------|







************************************

| /   slide up
| \   slide down
| h   hammer-on
| p   pull-off
| ~   vibrato
| +   harmonic
| x   Mute note
| b   Bend
| pb  Pre-bend
| br  Bend release
| pbr Pre-bend release
| brb Bend release bend

************************************
Добавлено: 08.06.2012
Другие материалы по этой песне:
  • Аккорды и текст

Страница создана 08.06.2012
http://primanota.ru/donnas/have-you-no-pride-chords.htm
Привет, Гость.
Предлагаем пройти революционный курс по гитаре.
Подарок от PrimaNota.Ru, забирай!