PrimaNota.ru - самый крупный в мире бесплатный архив песенных текстов, аккордов, табулатур и нот


Donnas - Give Me What I Want - бас-таба, видео

Регистрация Запомнить меня
Войти через:  Facebook Google Twitter Vk Yandex Mail.ru

Donnas - Give Me What I Want - бас-таба, видео

Печатать
Просмотров: 133
Уроки эстрадного вокала в Санкт-Петербурге
Give me what i want
Tabbed by Leeo_96

|----------------------|
|----------------------|
|---------------7------|   X3
|--7-5-7---5-7-----7---|

|------------------------------|
|------------------------------|
|---------------7--------------|   
|--7-5-7---5-7-----7---7-5-7---|

|------------------------------|
|------------------------------|
|------------------------------|   
|------------------------------|

|------------------------------|
|------------------------------|
|---------------7--------------|   
|--7-5-7---5-7-----7---7-5-7---|

|------------------------------|
|------------------------------|
|------------------------------|   
|------------------------------|


|------------------------------|
|------------------------------|
|---------------7--------------|   
|--7-5-7---5-7-----7---7-5-7---|

|------------------------------|
|------------------------------|
|------------------------------|   
|--3333333-000000000-22222-----|

|------------------------------|
|------------------------------|
|--------555555----------------|   
|-777777--------33333-00000----|

|------------------------------|
|------------------------------|
|--------555555------------7777|   
|-777777--------33333-00000----|

|----------------------|
|----------------------|
|---------------7------|   X2
|--7-5-7---5-7-----7---|

|------------------------------|
|------------------------------|
|---------------7--------------|   
|--7-5-7---5-7-----7---7-5-7---|

|------------------------------|
|------------------------------|
|------------------------------|   
|------------------------------|

|------------------------------|
|------------------------------|
|---------------7--------------|   
|--7-5-7---5-7-----7---7-5-7---|

|------------------------------|
|------------------------------|
|------------------------------|   
|------------------------------|


|------------------------------|
|------------------------------|
|---------------7--------------|   
|--7-5-7---5-7-----7---7-5-7---|

|------------------------------|
|------------------------------|
|------------------------------|   
|--3333333-000000000-22222-----|

|------------------------------|
|------------------------------|
|--------555555----------------|   
|-777777--------33333-00000----|


|------------------------------|
|------------------------------|
|--------555555------------7777|   
|-777777--------33333-00000----|


Solo
|------------------------------|
|------------------------------|
|--------555555----------------|   
|-777777--------33333-00000----|

|------------------------------|
|------------------------------|
|--------555555----------------|   
|-777777--------33333-777777777|

|----------------------|
|----------------------|
|---------------7------|   X7
|--7-5-7---5-7-----7---|

|------------------------------|
|------------------------------|
|---------------7--------------|   
|--7-5-7---5-7-----7---7-5-7---|

|------------------------------|
|------------------------------|
|------------------------------|   
|--3333333-000000000-22222-----|

|------------------------------|
|------------------------------|
|--------555555----------------|   
|-777777--------33333-00000----|

|------------------------------|
|------------------------------|
|--------555555----------------|   
|-777777--------33333-00000----|

|------------------------------|
|------------------------------|
|--------555555----------------|   
|-777777--------33333-00000----|


|------------------------------|
|------------------------------|
|--------555555------------7777|   
|-777777--------33333-00000----|

|----------------------|
|----------------------|
|---------------7------|   X3
|--7-5-7---5-7-----7---|

|------------------------------|
|------------------------------|
|---------------------7--------|   
|--7-5-7--7-5-7--5-7-----7-----|

Добавлено: 20.07.2012
Другие материалы по этой песне:
  • Аккорды и текст

Страница создана 20.07.2012
http://primanota.ru/donnas/give-me-what-i-want-chords.htm
Привет, Гость.
Предлагаем пройти революционный курс по гитаре.
Подарок от PrimaNota.Ru, забирай!