PrimaNota.ru - самый крупный в мире бесплатный архив песенных текстов, аккордов, табулатур и нот


Donnas - Get Off - таба, видео

Регистрация Запомнить меня
Войти через:  Facebook Google Twitter Vk Yandex Mail.ru

Donnas - Get Off - таба, видео

Печатать
Просмотров: 160
Уроки эстрадного вокала в Санкт-Петербурге
Band : The Donnas
Song : Get off
Album : Greatest hits vol.16
Tuning : Standard
Tabbed by : Anelore

Intro
e--------------------|
B--------------------|
G--------------------|
D-4---4-7-2----------|
A-4---4-7-2----------|
E-2-0-2-5-0-/7-5-7~--|
                              x2
e------------------|
B------------------|
G------------------|
D-4---4-4-7-7-6----|
A-4---4-4-7-7-6----|  
E-2-0-2-2-5-5-4-0--|

Found you on the floor...
e-----|
B-----|
G-----|
D-4---|
A-4---|
E-2---|

Giving it all to me...
e----|
B----|
G----|
D-7--|
A-7--|
E-9--|

Champagne in your eyes...
e---------------------------------------------------------|
B---------------------------------------------------------|
G---------------------------------------------------------|
D-------14-----------14-----------14-----------14-16-16~--|
A-16-16----16-16~-16----16-16~-16----16-16~-16------------|
E---------------------------------------------------------|

Strokin' on my skin...
e--------------------------------------------------------------|
B-------------------------------------------14----14----14-----|
G-------------------------------------------16b18-16b18-16b18--| 
D-----14-----------14-----------14----14-----------------------|
A--16----16-16~-16----16-16~-16----16----16--------------------|
E--------------------------------------------------------------|
                                             no pick for the last         
                                            two,let the notes ring          

Chorus:

You wanna be my fantasy...
e----------------------------------|
B----------------------------------|
G-----------------4-4-4-x-4-x-2----|
D-4---4-x-4---4-x-4-4-4-x-4-x-2-2--|
A-4---4-x-4---4-x-2-2-2-x-2-x-0-2--|
E-2-0-2-x-2-0-2-x---------------0--|

Desperate touch...
e----------------------------------|
B----------------------------------|
G-----------------3-3-3-x-3-x-2----|
D-4---4-x-4---4-x-3-3-3-x-3-x-2-2--|
A-4---4-x-4---4-x-5-5-5-x-5-x-0-2--|
E-2-0-2-x-2-0-2-x---------------0--|

e--------------------|
B--------------------|
G--------------------|
D-4---4-7-2----------|
A-4---4-7-2----------|
E-2-0-2-5-0-/7-5-7~--|

Roses at my door...
e-----|
B-----|
G-----|
D-4---|
A-4---|
E-2---|

Sweat all over the sheets...
e----|
B----|
G----|
D-7--|
A-7--|
E-9--|

Shakin' like a fool...
e---------------------------------------------------------|
B---------------------------------------------------------|
G---------------------------------------------------------|
D-------14-----------14-----------14-----------14-16-16~--|
A-16-16----16-16~-16----16-16~-16----16-16~-16------------|
E---------------------------------------------------------|

e------------------------------------|
B-10-----9------7-----5----2---------|
G-12b14--11b13--9b11--7b9--4b6--2----|
D-------------------------------2-2--|
A-------------------------------0-2--|
E---------------------------------0--|

Chorus:
If you wanna be my fantasy...Desperate touch...

e----------------------------------------------------------|
B----------------------------------------------------------|
G----------------------------------------------------------|
D-4-4-4-4-4--------4-4-4-4-5-4-4-4-4-4--------4-4-4-4------|
A-4-4-4-4-4--------4-4-4-4-5-4-4-4-4-4--------4-4-4-4-2----|
E-2-2-2-2-2-2h4-2~-2-2-2-2-7-2-2-2-2-2-2h4-2~-2-2-2-2---4--|
    . . . .        . . . .     . . . .        . . . . 
      PM              PM          PM              PM


Solo:
e--------------------------------------------------|
B-------------------------2------------------------|
G---------------------2-4-4b6-(13 times)-2---2-----|
D------------2h4-4~-4----------------------4---4~--|
A--------2-4---------------------------------------|
E-2~-2-5-------------------------------------------|

e-----------------------------------------------------------------|
B------------7-7------7-7------7-10-7-----------------------------|
G-6h9-6-9b11-----9b11-----9b11--------9-9b11-6-----6--------------|
D----------------------------------------------9-9---9-7----------|
A--------------------------------------------------------9-9-9-9--|
E-----------------------------------------------------------------|

e------------------------------------------------------|
B-------12-14----14----14----14----14------------------|
G-11h14----16b18-16b18-16b18-16b18-16b18-16-14-16------|
D-------------------------------------------------16~--|
A------------------------------------------------------|
E------------------------------------------------------|
                                                                 X2
e------------------------------------------------------------|
B-------12-14----14----14----14----14--------------17-14-----|
G-/11-14----16b18-16b18-16b18-16b18-16b18-16-14-16----16b18--|
D------------------------------------------------------------|
A------------------------------------------------------------|
E------------------------------------------------------------|

Chorus x2

I wanna shoot you down...

e--------------------------------------------------------------------|
B--------------------------------------------------------------------|
G--------------------------------------------------------------------|
D-4-4-4-4-4--------4-4-4-4-5-4-4-4-4-4--------4-4-4-4-5-4-4-4-4-4-5--|
A-4-4-4-4-4--------4-4-4-4-5-4-4-4-4-4--------4-4-4-4-5-4-4-4-4-4-5--|
E-2-2-2-2-2-2h4-2~-2-2-2-2-7-2-2-2-2-2-2h4-2~-2-2-2-2-7-2-2-2-2-2-7--|
    . . . .        . . . .     . . . .        . . . .   . . . . .
      PM              PM          PM             PM        PM

e---------------------------------|
B---------------------------------|
G-----------7---------9-9-11-11/--|
D-4-4-4-4-4-7-4-4-4-4-9-9-11-11/--|
A-4-4-4-4-4-5-4-4-4-4-7-7--9--9/--|
E-2-2-2-2-2---2-2-2-2-------------|
    . . . .   . . . .      
      PM         PM                
Добавлено: 06.04.2012
Другие материалы по этой песне:
  • Аккорды и текст

Страница создана 06.04.2012
http://primanota.ru/donnas/get-off-chords.htm
Привет, Гость.
Предлагаем пройти революционный курс по гитаре.
Подарок от PrimaNota.Ru, забирай!