PrimaNota.ru - самый крупный в мире бесплатный архив песенных текстов, аккордов, табулатур и нот


Donnas - Dont Wait Up For Me - таба, видео

Регистрация Запомнить меня
Войти через:  Facebook Google Twitter Vk Yandex Mail.ru

Donnas - Dont Wait Up For Me - таба, видео

Печатать
Просмотров: 113
Don't Wait Up For Me
tabbed by Iggy
The Donnas
Bitchin'
Standard Tuning

~ - vibrato
h - Hammer on
p - pull off
(y)^(x) - (fretted note) Bend (desired note)
/ - slide
* - palm mute on, ** - palm mute off

Intro
Allison:
e-|--------------------|
B-|--------------------|
G-|11----11-14-11-9-11-|
D-|11----11-14-11-9-11-|
A-|-9-----9-12--9-7--9-|
E-|--------------------|

(it's actually a second guitar that does these parts but if
you can find a way to do them with one, more power to you)
G2
e----------------|-------|
B----------------|-------|
G----------------|-9--11-|
D----------------|-9--11-|
A---7-7------7-9-|-7---9-|
E-9-----10-9-----|-------|

e-----------------------|
B-----------------------|
G-11-11-9-11---11-14-11-|
D-11-11-9-11---11-14-11-|
A--9--9-7--9----9-12--9-|
E-----------------------|

e----------------|-------|
B----------------|-------|
G----------------|-9--11-|
D----------------|-9--11-|
A---7-7------7-9-|-7---9-|
E-9-----10-9-----|-------|

Verse

e-----------------------------|
B-----------------------------|
G-----------------------------|
D-4-x-x-x-4-x-4--*4-4-4-4-4-4-|
A-4-x-x-x-4-x-4--*4-4-4-4-4-4-|
E-2-x-x-x-2-x-2--*2-2-2-2-2-2-|___
                                  \
e----------------|                 \
B----------------|                 / X2  
G-**6-7----4--6--|________________/
D-**6-7----4--6--|
A-**4-5----2--4--|
E----------------|

Guitar 2
e-------------------------|
B-------------------------|
G-------------------------|
D------4-------4-----2-4--|
A-4-5----7-5-2---2h4------|
E-------------------------|

Pre-Chorus

e----------------------------------|
B----------------------------------|
G-7-----9--------------------------|
D-7-----9-----------4--------------|
A-5-----7-----------4--------------|
E-------------------2--------------|
|
|(as i said above, if you can do this on one guitar without
|ruining the ringing of the chords, i salute you)
G2
e----------------------------------|
B----------------------------------|
G----------------------------------|
D----------------------------------|
A----9-------7-9-------2--0--------|
E----------9-----------------2--0--|

e-----------------|
B-----------------|
G-7----9----------|
D-7----9----------|
A-5----7----------|
E-----------------|
|
|
|
G2
e-----------------|
B-----------------|
G-----------------|
D-----------------|
A-------------7-9-|
E------------9----|

Chorus

Intro

e-|--------------------|
B-|--------------------|
G-|11----11-14-11-9-11-|
D-|11----11-14-11-9-11-|
A-|-9-----9-12--9-7--9-|
E-|--------------------|

G2
e----------------|-------|
B----------------|-------|
G----------------|-9--11-|
D----------------|-9--11-|
A---7-7------7-9-|-7---9-|
E-9-----10-9-----|-------|

e-----------------------|
B-----------------------|
G-11-11-9-11---11-14-11-|
D-11-11-9-11---11-14-11-|
A--9--9-7--9----9-12--9-|
E-----------------------|

G2
e----------------|-------|
B----------------|-------|
G----------------|-9--11-|
D----------------|-9--11-|
A---7-7------7-9-|-7---9-|
E-9-----10-9-----|-------|

Fill
e------------------|
B------------------|
G------------------|
D-*4-4-4-4-4-4-4-4-|
A-*4-4-4-4-4-4-4-4-|
E-*2-2-2-2-2-2-2-2-|

Verse

Pre-Chorus

Chorus

Interlude

e-------------|
B-------------|
G-7----4----2-|
D-7----4----2-|
A-5----2----0-|
E-------------|
                 
e--------------|
B--------------|
G-7----------2-|
D-7----2-4-7-2-|
A-5----2-4-7-2-|
E------0-2-5-0-|

e-------------|
B-------------|
G-7----4----2-|
D-7----4----2-|
A-5----2----0-|
E-------------|

e-----------|
B-----------|
G-7----9----|
D-7----9----|
A-5----7----|
E-----------|

Solo
e---------------------------------------|
B----------------------10---------------|
G-------9----11--9-11----11----9--11-11-|
D-9/11----11---------------11-----------|
A---------------------------------------|
E---------------------------------------|

e---------------------------------------------------------
B----------10----10-12^(14)--12^(14)^(12)p10----10h12p10--
G-11-9-11-----11-----------------------------11---------11
D---------------------------------------------------------
A---------------------------------------------------------
E---------------------------------------------------------

------------------------------------|
-10--------------------14--------14-|
-----11---14-16-16^(18)---16^(18)---|
------------------------------------|
------------------------------------|
------------------------------------|

e--------14-------14-------14-------14-|
B--------------------------------------|
G-16^(18)--16^(18)--16^(18)--16^(18)---|
D--------------------------------------|
A--------------------------------------|
E--------------------------------------|
(the bends make them look like they count for more but
those bend notes only count as an 8th note)
e--------14--------14---------14--14------14--------|
B-17^(19)---17^(19)----17^(19)----17^(19)-17^(19)---|
G---------------------------------------------------|
D---------------------------------------------------|
A---------------------------------------------------|
E---------------------------------------------------|

e-17^(19)-17-14-17^(19)-17-14---14~~~~~-|
B-----------------------------17--------|
G---------------------------------------|
D---------------------------------------|
A---------------------------------------|
E---------------------------------------|

Pre-Chorus

Drum fill (rest)

Chorus X until ending

The song ends on these notes of the chorus
e-------|
B-------|
G-9--11-|
D-9--11-|
A-7---9-|
E-------|

that's all to it.if you got questions, complaints, comments, or compliments i'm at 
reptiliahasnoend@yahoo.com
Добавлено: 30.04.2012
Другие материалы по этой песне:

Страница создана 30.04.2012
http://primanota.ru/donnas/dont-wait-up-for-me-chords.htm
Привет, Гость.
Предлагаем пройти революционный курс по гитаре.
Подарок от PrimaNota.Ru, забирай!