PrimaNota.ru - самый крупный в мире бесплатный архив песенных текстов, аккордов, табулатур и нот


Donnas - Dont Break Me Down - текст песни, таба, бас-таба, видео

Регистрация Запомнить меня
Войти через:  Facebook Google Twitter Vk Yandex Mail.ru

Donnas - Dont Break Me Down - текст песни, таба, бас-таба, видео

Печатать
Просмотров: 455
The Donnas - Don't Break Me Down (solo)
Album: Gold Medal

Legend:
p-pull off
h-hammer on
b-bend
\-slide down

The tab for the rest of the song on UG is good so I'll just tab the solo since
I haven't seen any for this song.

(1:30)
e------------------------------------------------|
B------------------------------------------------|
G------------------------------------------12----|
D---------12-14-14-12-14-12----12----12-14----14-|
A---12-14-------------------14----14-------------|
E------------------------------------------------|

e-----------------------------------------------------------------|
B-----------------------------------------------------------------|
G------12-14-14b16b14-12----12h14p12------------------------------|
D---14-------------------14----------14-12----12h14p12----12-14---|
A------------------------------------------14----------14---------|
E-----------------------------------------------------------------|

e---------------------------------------------------|
B---------------------15----------------------------|
G---12-14-14b16b14-12----16p14h16p14-12h14p12-14-12-|
D---------------------------------------------------|
A---------------------------------------------------|
E---------------------------------------------------|

e----------------------------------------------------------------|
B----------------------------------------------------------------|
G---11-9-11-12-11-9--8---9-8---------7-9-9b11b9-7---7h9-----7-9\-|
D----------------------9-----9\--7-9--------------9-----7-9------|
A----------------------------------------------------------------|
E----------------------------------------------------------------|
 [gradually bend to 4]
e---------------|-------------|
B---0-0-0-0-0--0|-------------|
G---2-2-2-2-2--2|-------2p0---|
D---------------|-----------2-|
A---------------|-------------|
E---------------|-------------|

Short solo but fun to play, hope it's right(sounds right). Listen to the
song for timing. IM me at CrazyJim25 for any questions you have.
Добавлено: 14.05.2012
Другие материалы по этой песне:
  • Аккорды и текст

Страница создана 05.04.2012
http://primanota.ru/donnas/dont-break-me-down-chords.htm
Привет, Гость.
Предлагаем пройти революционный курс по гитаре.
Подарок от PrimaNota.Ru, забирай!