PrimaNota.ru - самый крупный в мире бесплатный архив песенных текстов, аккордов, табулатур и нот


Donnas - Done With You - текст песни, таба, видео

Регистрация Запомнить меня
Войти через:  Facebook Google Twitter Vk Yandex Mail.ru

Donnas - Done With You - текст песни, таба, видео

Печатать
Просмотров: 141
The Donnas - Done with you

This is my first tab ever so it's probably not 100% perfect.
//Emma, Sweden


intro: Bass


1st & 2nd verse: Acoustic guitar

       B 
I admit it
                  em
I'm the one that quit it
            G                            E
You'd never do it, even though you blew it
      B
Deep down you knew it
         em
But you hid it
    G                     E
I guess I just beat you to it


pre-chorus:       
                      And we be kissin' and I be...
e|------------------|-------------------------|-------------|
b|------------------|-------------------------|-------------|
g|--7---4-4--7--44--|-------------------------|--7-7-7------|
d|--7---4-4--7--44--|------------------9--9---|--7-7-7--2-2-|
a|--5---2-2--5--22--|---------------7-------9-|--5-5-5--2-2-|
E|------------------|--10--7-7--10------------|-------------|
            We didn't fight, We just passed..
e|-----------------------|----------------|
b|-----------------------|----------------|
g|--4-4-4-----7---9--7---|--7-7-7-7-------|
d|--4-4-4---9---9------9-|--7-7-7-7--2-2--|
a|--2-2-2----------------|--5-5-5-5--2-2--|
E|-----------------------|----------------|


chorus: x2

I'm all done with you now
e|---------------------|
b|---------------------|
g|--9b9b-9br9--7-------|
d|----------------9-9--|
a|---------------------|
E|---------------------|

vers 
pre-chorus
chorus x3

bridge 1:

I should've known..  x4                 
e|---------------------|
b|---------------------|
g|---------7-----------|
d|---7--7----99--------|
a|---------------------|
E|---------------------|

vers 3:                                                       x2
e|--------------------------------|-------------------------------|
b|--------------------------------|-------------------------------|
g|--------------------------------|-------------------------------|
d|-7-9-12-9-9-9-9-4-4-4-4-7-7-7-7-|7-9-12-9-9-9-9-4-4-4-4-4-4-4-4-|
a|-7-9-12-9-9-9-9-4-4-4-4-7-7-7-7-|7-9-12-9-9-9-9-4-4-4-4-4-4-4-4-|
E|-5-7-10-7-7-7-7-2-2-2-2-5-5-5-5-|5-7-10-7-7-7-7-2-2-2-2-2-2-2-2-|
          pm......................        pm......................

brigde 2:

e|---------|-------------------|---------|-------------------|
b|---------|-------------------|---------|-------------------|
g|-----7---|-------------------|-----7---|-------------------|
d|-7-9---9-|-4-4-4-4-7-7-7-7-7-|-7-9---9-|-4-4-4-4-4-4-4-4-4-|
a|---------|-4-4-4-4-7-7-7-7-7-|---------|-4-4-4-4-4-4-4-4-4-|
E|---------|-2-2-2-2-5-5-5-5-5-|---------|-2-2-2-2-2-2-2-2-2-|
            pm.................           pm.................
e|---------|-------------------|---------|-2-2-5-5-|
b|---------|-------------------|---------|-2-2-5-5-|
g|-----7---|-------------------|-----7---|-3-3-6-6-|
d|-7-9---9-|-4-4-4-4-7-7-7-7-7-|-7-9---9-|-4-4-7-7-|
a|---------|-4-4-4-4-7-7-7-7-7-|---------|-4-4-7-7-|
E|---------|-2-2-2-2-5-5-5-5-5-|---------|-2-2-5-5-|
            pm.................

solo:

e|---------------------------------------------------------|
b|---------------------------------------------------------|
g|-9b/11--9/11--9/11--9/11--9\7------7---7--9br9-7-----7---|
d|-------------------------------9-9---9------------99---9-|
a|---------------------------------------------------------|
E|---------------------------------------------------------|

e|--------------------------------------------------------------|
b|----------------------------------------------15-14-12-----12-|
g|-11-9---------11-9---------------14----16---------------14----|
d|------12-9-12------12-9-12-9--16----16----16------------------|
a|--------------------------------------------------------------|
E|--------------------------------------------------------------|

e|------------------------------------------|
b|------------------------------------------|
g|--------------------------11-9~-----------|
d|-12--9-9--12-12--9-9--12--------12--9-----|
a|------------------------------------------|
E|------------------------------------------|


pre-chorus:

e|-------------|-----------------------|----------------|
b|-------------|-----------------------|----------------|
g|--7-7-7------|--4-4-4-----7---9--7---|--7-7-7-7-------|
d|--7-7-7--2-2-|--4-4-4---9---9------9-|--7-7-7-7--2-2--|
a|--5-5-5--2-2-|--2-2-2----------------|--5-5-5-5--2-2--|
E|-------------|-----------------------|----------------|

chorus x5

          x4                 x3
e|----------|------------------|-----------------|
b|----------|------------------|-----------------|
g|-----7----|------------------|---------9-----7-|
d|-7-9---99-|-7-9-12-9-9-9-9-9-| 7-9-12--9-----7-|
a|----------|-7-9-12-9-9-9-9-9-|-7-9-12--7-----5-|
E|----------|-5-7-10-7-7-7-7-7-|-5-7-10----------|
            pm..........................    

outro:

e|---------------------|
b|---------------------|
g|--9b9b-9br9--7-------|
d|----------------9-9--|
a|---------------------|
E|---------------------|fade out

Добавлено: 27.03.2012
Другие материалы по этой песне:
  • Аккорды и текст

Страница создана 29.02.2012
http://primanota.ru/donnas/done-with-you-chords.htm
Привет, Гость.
Предлагаем пройти революционный курс по гитаре.
Подарок от PrimaNota.Ru, забирай!