PrimaNota.ru - самый крупный в мире бесплатный архив песенных текстов, аккордов, табулатур и нот


Donnas - Dirty Denim - текст песни, таба, видео

Регистрация Запомнить меня
Войти через:  Facebook Google Twitter Vk Yandex Mail.ru

Donnas - Dirty Denim - текст песни, таба, видео

Печатать
Просмотров: 148
Уроки эстрадного вокала в Санкт-Петербурге
Авторы: Allison Robertson, Torry Castellano, Maya Ford, Brett Anderson

Donnas - Dirty Denim


Intro:

   B            G            B            G
----------------3---3--3-3----------------3---3--3-3-----------|
----------------3---3--3-3----------------3---3--3-3-----------|
---4---4--4-4---0---0--0-0---4---4--4-4---0---0--0-0-----------|
---4---4--4-4---0---0--0-0---4---4--4-4---0---0--0-0-----------|
---2---2--2-2---2---2--2-2---2---2--2-2---2---2--2-2-----------|
----------------3---3--3-3----------------3---3--3-3-----------|


  A                           F#
------------------------------2------2-2-----|
------------------------------2------2-2-----|
---------------------------------------3-----|
--7------------------------------4-----4---4-|
--7---9-7-7-7-9-7-7-7-9-7-7-7----4-----4---4-|
--5---5-5-5-5-5-5-5-5-5-5-5-5----2-----2---2-|

    |Verse:
    |B        E  B                  B    E B
---------------------------7-------------------------7-----------|
--------------9------------7~-7----------9-----------7~-7--------|
--------------9---------------9^---------9--------------9^-------|
-4-4/9---9--9-9--9---9--9-----------9--9-9--9---9-9--------------|
-4-4/9---9--9-7--9---9--9-----------9--9-7--9---9-9--------------|
-2-2/7---7--7----7---7--7-----------7--7----7---7-7--------------|


  D                  A            A       A# B
-----5---------5---------------------------------|
-----7---------7---------------------------------|
--7------7--7-----7------------------------------|
--7------7--7-----7--7---------7-----------------|
--5------5--5-----5--7--7-9-7--7--7-9-7--7-8-9---|
---------------------5--5-5-5--5--5-5-5--5-6-7---|


  E
--0------------------|
--0--------0---0-----|
--1----2h4---2---0---|
--2------------------|
---------------------|
---------------------|

Chorus (2x)

-------------------------------------------|
-------------------------------------------|
--4-----4-----4----------------------------|
--4--6--4--6--4---------2---2----2--2---2--|
--2--2--2--2--2--0------2---2----2--2---2--|
-------------------3-0--0-3-0--3-0--0-3-0--|

-----2----------3--3-3---------------------|
-----4----------3--3-3-----------0---0-----|
--4--4--4--4-4--0--0-0--------2h4--2---0---|
--4-----4--4-4--0--0-0--2--2---------------|
--2-----2--2-2--2--2-2--2--2---------------|
----------------3--3-3--0--0---------------|

* Chorsus Last time before bridge:

-----2----------3--3-3-----------------3--|
-----4----------3--3-3-----------------3--|
--4--4--4--4-4--0--0-0-----------------0--|
--4-----4--4-4--0--0-0--2--2-----------0--|
--2-----2--2-2--2--2-2--2--2-----------2--|
----------------3--3-3--0--0-----------3--|

Bridge:

  B                       D     B                         D
----------------------------------------------------------------|
----------------------------------------------------------------|
----------------------------------------------------------7-7-7-|
--9-----------------------7-7-7---------------------------7-7-7-|
--9-9-9-9-9-9-9-9-9-9-9-9-5-5-5-9-9-9-9-9-9-9-9-9-9-9-9-9-5-5-5-|
--7-7-7-7-7-7-7-7-7-7-7-7-------7-7-7-7-7-7-7-7-7-7-7-7-7-------|
    PM...................................................

  G                             F#
------------------------------------------------------------------|
------------------------------------------------------------------|
------------------------------------------------------------------|
--5-----------------------------4---------------------------------|
--5-5-5-5-5-5-5-5-5-5-5-5-5-5-5-4-4-4-4-4-4-4-4-4-4-4-4-4-4-4-4---|
--3-3-3-3-3-3-3-3-3-3-3-3-3-3-3-2-2-2-2-2-2-2-2-2-2-2-2-2-2-2-2---|

Solo:

------------------------------------------------------------------|
------------------------------------------------------------------|
-----7-9-9^9-7h9p7------------------------------------------------|
--/9-----------------9-7-7h9p7---7/9--9\7-7\6-6\4-4/6-6/7~--------|
-------------------------------9----------------------------------|
------------------------------------------------------------------|

---------------------------5----------------------------------------|
-----------------------------7p5---5-7-7p5---7p5---7p5---7p5----5---|
------------------------7^-------7---------7-----7-----7-----7------|
--6/7-7/9-9\7-7\6-6\4-----------------------------------------------|
--------------------------------------------------------------------|
----------7\5-5\4-4\2-----------------------------------------------|

----------------------------------------------------------------|
-----7--7--7---7-7-7-7-7----7--7--7---7-7-7-7-7-----------------|
--7--9^-9^-9^9-9^--9^--9^9--9^-9^-9^9-9^--9^--9^9---------------|
----------------------------------------------------------------|
----------------------------------------------------------------|
----------------------------------------------------------------|


      *harmonics***************
------10-7-----7-----7-----------------9-----7-----5-----4---------------|
--10-------10^---10^---10-7-10-7---------------------------------0---0---|
---------------------------------7--/9---9\7---7\6---6\4-----2h4---2---0-|
-------------------------------------------------------------------------|
-------------------------------------------------------------------------|
-------------------------------------------------------------------------|
Добавлено: 13.05.2012
Другие материалы по этой песне:
  • Аккорды и текст

Страница создана 25.04.2012
http://primanota.ru/donnas/dirty-denim-chords.htm
Привет, Гость.
Предлагаем пройти революционный курс по гитаре.
Подарок от PrimaNota.Ru, забирай!