PrimaNota.ru - самый крупный в мире бесплатный архив песенных текстов, аккордов, табулатур и нот


Donnas - Cant Keep It A Secret - таба, видео

Регистрация Запомнить меня
Войти через:  Facebook Google Twitter Vk Yandex Mail.ru

Donnas - Cant Keep It A Secret - таба, видео

Печатать
Просмотров: 114
Band : The Donnas
Song : Can't keep it a secret
Album : Bitchin'(Japanese bonus track)
Tuning : Standard
Tabbed by : Anelore

Intro
e--------------------------------------------------|
B--------------------------------------------------|
G--------------------------------------------------|
D-9-11-9-9-11-9-4-4-4-4-4-6-6-6-6-6-2-----2-2h4-4~-|
A-7-7--7-7-7--7-2-2-2-2-2-4-4-4-4-4-2-2h4----------|
E-----------------------------------0--------------|

e------------------------------------------------|
B------------------------------------------------|
G-------------------------2-2-2-2-2-6-6-6-4-4-4--|
D-9-11-9-9-11-9-4-4-4-4-4-2-2-2-2-2-6-6-6-4-4-4--|
A-7-7--7-7-7--7-2-2-2-2-2-0-0-0-0-0-4-4-4-2-2-2--|
E------------------------------------------------|

You're the sweet that get stuck in my teeth...
e------------------------------|
B------------------------------|
G-------4-4-6-4-6-6------------|
D-2-2-2-4-4-6-4-6-6-6-6-x-7-7--|    X2
A-2-2-2-2-2-4-2-4-4-6-6-x-7-7--|
E-0-0-0-------------4-4-x-5-5--|
  . .                                 
  PM                    

They say i'm not the one you're looking for...
e-0---0-----0-----0---2---2---0---0-----0-------0---0-|
B---0---0-0---0-4---0---0---0---0---0-0---0-4s5---5---|
G-----------------------------------------------------|
D-----------------------------------------------------|
A-----------------------------------------------------|
E-----------------------------------------------------|

But when you play hard to get, you're hard to ignore
e--------------------|
B---------7----9-----|
G---------9b11-11b13-|
D-4-4-4-4------------|
A-4-4-4-4------------|
E-2-2-2-2------------|


Chorus (same as intro) I can't keep it a secret any more...
e------------------------------------------------|
B------------------------------------------------|
G------------------------------------------------|
D-9-11-9-9-11-9-4-4-4-4-4-6-6-6-6-6-2-----2h4-4~-|
A-7-7--7-7-7--7-2-2-2-2-2-4-4-4-4-4-2-2h4--------|
E-----------------------------------0------------|

e------------------------------------------------|
B------------------------------------------------|
G-------------------------2-2-2-2-2-6-6-6-4-4-4--|
D-9-11-9-9-11-9-4-4-4-4-4-2-2-2-2-2-6-6-6-4-4-4--|
A-7-7--7-7-7--7-2-2-2-2-2-0-0-0-0-0-4-4-4-2-2-2--|
E------------------------------------------------|

e----------------------------------------|
B--------------------9-----9-------------|
G-----------9-9-9/11-9-----11b13-9-------|
D-/9---9----9-9-9/11---11~---------11-9~-|
A----11--11------------------------------|
E----------------------------------------|

I am the law you should be breaking...
e------------------------------|
B------------------------------|
G-------4-4-6-4-6-6------------|
D-2-2-2-4-4-6-4-6-6-6-6-x-7-7--|    X2
A-2-2-2-2-2-4-2-4-4-6-6-x-7-7--|
E-0-0-0-------------4-4-x-5-5--|
  . .                                 
  PM                    

They say i'm not the one you're looking for...
e-0---0-----0-----0---2---2---0---0-----0-------0---0-|
B---0---0-0---0-4---0---0---0---0---0-0---0-4s5---5---|
G-----------------------------------------------------|
D-----------------------------------------------------|
A-----------------------------------------------------|
E-----------------------------------------------------|

But when you play hard to get, you're hard to ignore
e--------------------|
B---------7----9-----|
G---------9b11-11b13-|
D-4-4-4-4------------|
A-4-4-4-4------------|
E-2-2-2-2------------|

Chorus (same as intro) I can't keep it a secret any more...
e------------------------------------------------|
B------------------------------------------------|
G------------------------------------------------|
D-9-11-9-9-11-9-4-4-4-4-4-6-6-6-6-6-2-----2h4-4~-|
A-7-7--7-7-7--7-2-2-2-2-2-4-4-4-4-4-2-2h4--------|
E-----------------------------------0------------|

e------------------------------------------------|
B------------------------------------------------|
G-------------------------2-2-2-2-2-6-6-6-4-4-4--|
D-9-11-9-9-11-9-4-4-4-4-4-2-2-2-2-2-6-6-6-4-4-4--|
A-7-7--7-7-7--7-2-2-2-2-2-0-0-0-0-0-4-4-4-2-2-2--|
E------------------------------------------------|

Just one kiss...
e--------------------------------------------------------|
B--------------------------------------------------------|
G---------------6-6-6-6-6-6-6---------------9-14-14-14-9-|
D-6-6-6-6-6-6-6-6-6-6-6-6-6-6-7-7-7-7-7-7-7-9-14-14-14-9-|
A-6-6-6-6-6-6-6-4-4-4-4-4-4-4-7-7-7-7-7-7-7-7-12-12-12-7-|
E-4-4-4-4-4-4-4---------------5-5-5-5-5-5-5--------------|
  . . . . . . .               . . . . . . . 
       PM                           PM

The secret's out...
e-----------------------------------------------|
B-----------------------------------------------|
G---------------6-6-6-6-6-6-6-------------------|
D-6-6-6-6-6-6-6-6-6-6-6-6-6-6-7-7-7-7-7-9-9-9-9-|
A-6-6-6-6-6-6-6-4-4-4-4-4-4-4-7-7-7-7-7-9-9-9-9-|
E-4-4-4-4-4-4-4---------------5-5-5-5-5-7-7-7-7-|
  . . . . . . .  

Solo:

e----------------------------------------------------|
B----------------------------------------------------|
G---------11b13br11-9----------------9----9----9-----|
D-/9-11-9-------------11~-9-11~-9-11---11~--11---11~-|
A----------------------------------------------------|
E----------------------------------------------------|

e--------9-------12----12----12----12------------------|
B------9---12-12----12----12----12----12b14br12-12-12~-|
G-9h11-------------------------------------------------|
D------------------------------------------------------|
A------------------------------------------------------|
E------------------------------------------------------|

e----9----9----9-----------------14-16-14------------|
B-12---12---12--12-14b16br14-12-----------14-14h17~\-|
G----------------------------------------------------|
D----------------------------------------------------|
A----------------------------------------------------|
E----------------------------------------------------|

Because i'm hard to forget, i'm hard to ignore...
e--------------------|
B---------7----9-----|
G---------9b11-11b13-|
D-4-4-4-4------------|
A-4-4-4-4------------|
E-2-2-2-2------------|

Chorus x3
Just one change on the last one

e------------------------------------------------|
B------------------------------------------------|
G------------------------------------------------|
D-9-11-9-9-11-9-4-4-4-4-4-6-6-6-6-6-6-6-6-7-7-7--|
A-7-7--7-7-7--7-2-2-2-2-2-4-4-4-4-4-6-6-6-7-7-7--|
E-----------------------------------4-4-4-5-5-5--|

e-------------------------------------------------|
B-------------------------------------------------|
G-------------------------2-2-2-2-2-6-6-6-4-4-4---|
D-9-11-9-9-11-9-4-4-4-4-4-2-2-2-2-2-6-6-6-4-4-4-2-|
A-7-7--7-7-7--7-2-2-2-2-2-0-0-0-0-0-4-4-4-2-2-2-2-|
E-----------------------------------------------0-|
Добавлено: 02.06.2012
Другие материалы по этой песне:
  • Аккорды и текст

Страница создана 02.06.2012
http://primanota.ru/donnas/cant-keep-it-a-secret-chords.htm
Привет, Гость.
Предлагаем пройти революционный курс по гитаре.
Подарок от PrimaNota.Ru, забирай!