PrimaNota.ru - самый крупный в мире бесплатный архив песенных текстов, аккордов, табулатур и нот


Donnas - Bitchin - таба, бас-таба, видео

Регистрация Запомнить меня
Войти через:  Facebook Google Twitter Vk Yandex Mail.ru

Donnas - Bitchin - таба, бас-таба, видео

Печатать
Просмотров: 220
The Donnas: Bitchin'
Tabbed By: Social D Rox
Email: SocialDRcks@dls.net

OFF THE NEW ALBUMN!!!!!

Standard Tuning

Enjoy. Pretty cool lick in this song. Fun and easy to play.

Get some feedback goin. Start out with pick slide.

e---------------------Repeat this part 4x--------------------------------|
B------------------------------------------------------------------------|
G-------4--4-4--4--4-4--4--4-4----------------------------2--2-2--2--2-2-|
D-------4--4-4--4--4-4--4--4-4---4-4-4---5--5-5--5--5-5---2--2-2--2--2-2-|
A-------2--2-2--2--2-2--2--2-2---4-4-4---5--5-5--5--5-5---0--0-0--0--0-0-|
E--------------------------------2-2-2---3--3-3--3--3-3------------------|
Palm Mute  . .     . .     . .              . .     . .      . .


e--------------------Repeat this part 4x----------------------------|
B-------------------------------------------------------------------|
G--4-----4444---4444---4442224444-----------------------------------|
D--4-----4444---4444---4442224444-----------------------------------|
A--2-----2222---2222---2222222222-----------------------------------|
E-------------------------------------------------------------------|

On the last time hold the power B power chord ( G-4 )
                                              ( D-4 )
                                              ( A-2 )

e--------Repeat however many times until solo kicks in------|
B-----------------------------------------------------------|
G------------------------2----------------------------------|
D------0-2-4-----4-4-2-0------------------------------------|
A--2-2------------------------------------------------------|
E-----------------------------------------------------------|

Ill try and figure out the part with power chords when the words come in.
Good song and pretty decent albumn. Dont wait up for me sounds loads similar to Joan 
too.
Добавлено: 24.03.2012
Другие материалы по этой песне:
  • Аккорды и текст

Страница создана 24.03.2012
http://primanota.ru/donnas/bitchin-chords.htm
Привет, Гость.
Предлагаем пройти революционный курс по гитаре.
Подарок от PrimaNota.Ru, забирай!