PrimaNota.ru - самый крупный в мире бесплатный архив песенных текстов, аккордов, табулатур и нот


Donnas - Better Off Dancin - таба, видео

Регистрация Запомнить меня
Войти через:  Facebook Google Twitter Vk Yandex Mail.ru

Donnas - Better Off Dancin - таба, видео

Печатать
Просмотров: 112
Song: Better Off Dancin'
Artist: The Donnas
Album: Bitchin'
Tuning: Standard 


Intro:
Guitar 1
e--------------------|
B--------------------|
G--------------------|
D--------------------|
A--------------------|
E-5~~~~---1~~~~------|

Guitar 2
e--------------------|
B--------------------|
G-----xpick----------|
D-----xscra----------|
A-----xtch-----------|
E--------------------|

Intro 2 X2
Guitar 1
e-5-----------------------------|
B-5-----------------------------|
G-5-----------------------------|
D-7-----------------------------|
A-7-----------------------------|
E-5-----------------------------|

Guitar 2
e-------------------------------|
B--------------5----------------|
G------5---7-------7---5-----5--|
D-7--7---7---7---7---7---7-7----|
A-------------------------------|
E-------------------------------|

Guitar 1
e-1-----------------------------|
B-1-----------------------------|
G-2-----------------------------|
D-3-----------------------------|
A-3-----------------------------|
E-1-----------------------------|

Guitar 2
e-------------------------------|
B--------------5----------------|
G------5---7-------7---5-----5--|
D-7--7---7---7---7---7---7-7----|
A-------------------------------|
E-------------------------------|

Verse
"Goin' out alone tonight..."
Guitar 1
e---------------------------|
B---------------------------|
G---------------------------|
D-7----------8-----3--------|
A-7----------8-----3--------|
E-5----------6-----1--------|

Guitar 2
e-----------------------------|
B-----------------------------|
G-----------------------------|
D-----------------------------|
A-----------------------------|
E-5-3h5--3h5-6-5-6--1--6-5-3--|

"Got an endless appetite..."
Guitar 1
e---------------------------|
B---------------------------|
G---------------------------|
D-7----------8-----3--------|
A-7----------8-----3--------|
E-5----------6-----1--------|

Guitar 2
e-----------------------------|
B-----------------------------|
G-----------------------------|
D-----------------------------|
A-----------------------------|
E-5-3h5--3h5-6-5-6--1--6-5-6--|

Pre-Chorus
"I'm takin' the lead..."
Guitar 1
e---------------------------------------------------|
B---------------------------------------------------|
G-5--5--5-5-5-5-------------------------------------|
D-5--5--5-5-5-5-5--5--5-5-5-3--3--3-3-3-3--3--3-3-3-|
A-3--5--3-3-3-3-5--5--5-5-5-3--3--3-3-3-3--3--3-3-3-|
E---------------3--3--3-3-3-1--1--1-1-1-1--1--1-1-1-|

Guitar 2
e--------------------------------------------------|
B--------------------------------------------------|
G--------------------------------------------------|
D--------------------------------------------------|
A-3-5/7-5--7-5----5--3-2-0-------5-3-2------3-5-7--|
E--------------------------------------------------|

"I know what to do..."
Guitar 1
e---------------------------------------------------|
B---------------------------------------------------|
G-5--5--5-5-5-5-------------------------------------|
D-5--5--5-5-5-5-5--5--5-5-5-3--3--3-3-3-3--2-2-2-5--|
A-3--5--3-3-3-3-5--5--5-5-5-3--3--3-3-3-3--2-2-2-5--|
E---------------3--3--3-3-3-1--1--1-1-1-1--0-0-0-3--|

Guitar 2 
e---------------------------------------------------|
B---------------------------------------------------|
G---------------------------------------------------|
D---------------------------------------------------|
A-3--5/7-5--7-5----5--3-2--------3-2-3------5-3-5-7-|
E----------------------------------------0----------|

Chorus X2
"Get out my way..."
Guitar 1
e-5--5--5--5--|
B-5--5--5--5--|
G-5--5--5--5--|
D-7--7--7--7--|
A-7--7--7--7--|
E-5--5--5--5--|

"Life..."
e-1--1--1--1--|
B-1--1--1--1--|
G-2--2--2--2--|
D-3--3--3--3--|
A-3--3--3--3--|
E-1--1--1--1--|

Intro 2 
Guitar 1
e-5-----------------------------|
B-5-----------------------------|
G-5-----------------------------|
D-7-----------------------------|
A-7-----------------------------|
E-5-----------------------------|

Guitar 2
e-------------------------------|
B--------------5----------------|
G------5---7-------7---5-----5--|
D-7--7---7---7---7---7---7-7----|
A-------------------------------|
E-------------------------------|

Verse
"I can't hear a word..."
Guitar 1
e---------------------------|
B---------------------------|
G---------------------------|
D-7----------8-----3--------|
A-7----------8-----3--------|
E-5----------6-----1--------|

Guitar 2
e-----------------------------|
B-----------------------------|
G-----------------------------|
D-----------------------------|
A-----------------------------|
E-5-3h5--3h5-6-5-6--1--6-5-3--|


"Throwin' all your notes away..."
Guitar 1
e---------------------------|
B---------------------------|
G---------------------------|
D-7----------8-----3--------|
A-7----------8-----3--------|
E-5----------6-----1--------|

Guitar 2
e-----------------------------|
B-----------------------------|
G-----------------------------|
D-----------------------------|
A-----------------------------|
E-5-3h5--3h5-6-5-6--1--6-5-6--|


Pre-Chorus
"I'm takin' the lead..."
Guitar 1
e---------------------------------------------------|
B---------------------------------------------------|
G-5--5--5-5-5-5-------------------------------------|
D-5--5--5-5-5-5-5--5--5-5-5-3--3--3-3-3-3--3--3-3-3-|
A-3--5--3-3-3-3-5--5--5-5-5-3--3--3-3-3-3--3--3-3-3-|
E---------------3--3--3-3-3-1--1--1-1-1-1--1--1-1-1-|

Guitar 2
e--------------------------------------------------|
B--------------------------------------------------|
G--------------------------------------------------|
D--------------------------------------------------|
A-3-5/7-5--7-5----5--3-2-0-------5-3-2------3-5-7--|
E--------------------------------------------------|

"I know what to do..."
e---------------------------------------------------|
B---------------------------------------------------|
G-5--5--5-5-5-5-------------------------------------|
D-5--5--5-5-5-5-5--5--5-5-5-3--3--3-3-3-3--2-2-2-5--|
A-3--5--3-3-3-3-5--5--5-5-5-3--3--3-3-3-3--2-2-2-5--|
E---------------3--3--3-3-3-1--1--1-1-1-1--0-0-0-3--|

Guitar 2 
e---------------------------------------------------|
B---------------------------------------------------|
G---------------------------------------------------|
D---------------------------------------------------|
A-3--5/7-5--7-5----5--3-2--------3-2-3------5-3-5-7-|
E----------------------------------------0----------|

Chorus X2
"Get out my way..."
Guitar 1
e-5--5--5--5--|
B-5--5--5--5--|
G-5--5--5--5--|
D-7--7--7--7--|
A-7--7--7--7--|
E-5--5--5--5--|

"Life..."
e-1--1--1--1--|
B-1--1--1--1--|
G-2--2--2--2--|
D-3--3--3--3--|
A-3--3--3--3--|
E-1--1--1--1--|

Bridge
"I Don't wanna stop..."
guitar 1 
e----------------------------------|
B----------------------------------|
G-7-7-7-7-3-3-3-3------------------|
D-7-7-7-7-3-3-3-3--3-3-3-3-3-3-3-3-|
A-5-5-5-5-1-1-1-1--3-3-3-3-3-3-3-3-|_______
E------------------1-1-1-1-1-1-1-1-|       \
                                            \
Guitar 2                                    /X2
e----------------------------------|_______/
B----------------------------------|
G----------------------------------|
D-0-3-2-3--3-2-3---3-2-3----3-2-3--|
A--------1-------------------------|
E----------------1-------1---------|

"at the end of the last song..."
e---------------------------------|
B---------------------------------|
G---------------------------------|
D-5-5-5-5-8-8-8-8-3-3-3-3-3-3-3-3-|
A-5-5-5-5-8-8-8-8-3-3-3-3-3-3-3-3-|
E-3-3-3-3-6-6-6-6-1-1-1-1-1-1-1-1-|
                                   __________
                                             \
                                              \
Guitar 2                                      /X1
e------------------------------------|_______/
B------------------------------------|
G------------------------------------|
D---3-2-3----3-2-3---3-2-3-----3-2-3-|
A---------1--------------------------|
E-3----------------1--------1--------|

"and everybody's gone i'll still be dancin'..."
e-------------------------|
B-------------------------|
G-------------------------|
D-5-5-5-5-8-8-8-8-7-------|
A-5-5-5-5-8-8-8-8-7-------|
E-3-3-3-3-6-6-6-6-5-------|

Guitar 2                                      
e-----------------------|
B-----------------------|
G-----------------------|
D---3-2-3----3-2-3------|
A---------1---------0---|
E-3---------------------|

Intro again

Bridge extended
e---------------------------------|
B---------------------------------|
G---------------------------------|
D-7-7-7-7-7-7-7-7-3-3-3-3-3-3-3-3-|X2
A-7-7-7-7-7-7-7-7-3-3-3-3-3-3-3-3-|
E-5-5-5-5-5-5-5-5-1-1-1-1-1-1-1-1-|
  Palm Mute *********************

Solo
Guitar 1
e---------------------------------|
B---------------------------------|
G---------------------------------|
D-7-7-7-7-7-7-7-7-7-7-7-7-7-7-7-7-|
A-7-7-7-7-7-7-7-7-7-7-7-7-7-7-7-7-|
E-5-5-5-5-5-5-5-5-5-5-5-5-5-5-5-5-|
palm mute ***********************

Guitar 2
e-------------------------------------|
B----13-15-15^(17)-----------15-13----|
G-14---------------14-14--14-------14-|
D-------------------------------------|
A-------------------------------------|
E-------------------------------------|

Guitar 1
e---------------------------------|
B---------------------------------|
G---------------------------------|
D-3-3-3-3-3-3-3-3-3-3-3-3-3-3-3-3-|
A-3-3-3-3-3-3-3-3-3-3-3-3-3-3-3-3-|
E-1-1-1-1-1-1-1-1-1-1-1-1-1-1-1-1-|
palm mute ***********************

Guitar 2
e-----------------------------------|
B----13-15-15^(17)-----------15-13--|
G-14---------------14-14--14--------|
D-----------------------------------|
A-----------------------------------|
E-----------------------------------|

Guitar 1
e---------------------------------|
B---------------------------------|
G---------------------------------|
D-7-7-7-7-7-7-7-7-7-7-7-7-7-7-7-7-|
A-7-7-7-7-7-7-7-7-7-7-7-7-7-7-7-7-|
E-5-5-5-5-5-5-5-5-5-5-5-5-5-5-5-5-|
palm mute ***********************

Guitar 2
e----------------12--15--12--15-12-12~~~-|
B-----13--15^(17)~~~~~~~~~~--------------|
G-14-------------------------------------|
D----------------------------------------|
A----------------------------------------|
E----------------------------------------|

Guitar 1
e----------------------------------
B----------------------------------
G----------------------------------
D-3-3-3-3-3-3-3-3-3-3-3-3-3-3-3-3--
A-3-3-3-3-3-3-3-3-3-3-3-3-3-3-3-3--
E-1-1-1-1-1-1-1-1-1-1-1-1-1-1-1-1--
palm mute ***********************

Guitar 2
e---------------------------15--12-15-15^(17)-|
B-15^(17)--15-13----15^(17)-------------------|
G----------------14---------------------------|
D---------------------------------------------|
A---------------------------------------------|
E---------------------------------------------|

Guitar 1 
                                     ---------|
                                     ---------|
                                     ---------|
                                     -8--7----|
                                     -8--7----|
                                     -6--5----|

Chorus X4
"Get out my way..."
Guitar 1
e-5--5--5--5--|
B-5--5--5--5--|
G-5--5--5--5--|
D-7--7--7--7--|
A-7--7--7--7--|
E-5--5--5--5--|

"Life..."
e-1--1--1--1--|
B-1--1--1--1--|
G-2--2--2--2--|
D-3--3--3--3--|
A-3--3--3--3--|
E-1--1--1--1--|

Outro X2
Guitar 1
e-5-----------------------------|
B-5-----------------------------|
G-5-----------------------------|
D-7-----------------------------|
A-7-----------------------------|
E-5-----------------------------|

Guitar 2
e-------------------------------|
B--------------5----------------|
G------5---7-------7---5-----5--|
D-7--7---7---7---7---7---7-7----|
A-------------------------------|
E-------------------------------|

Guitar 1
e-1-----------------------------|
B-1-----------------------------|
G-2-----------------------------|
D-3-----------------------------|
A-3-----------------------------|
E-1-----------------------------|

Guitar 2
e-------------------------------|
B--------------5----------------|
G------5---7-------7---5-----5--|
D-7--7---7---7---7---7---7-7----|
A-------------------------------|
E-------------------------------|

End
Guitar 1 
e------|
B------|
G------|
D-5--7-|
A-5--7-|
E-3--5-|
Добавлено: 08.04.2012
Другие материалы по этой песне:

Страница создана 17.03.2012
http://primanota.ru/donnas/better-off-dancin-chords.htm
Привет, Гость.
Предлагаем пройти революционный курс по гитаре.
Подарок от PrimaNota.Ru, забирай!