PrimaNota.ru - самый крупный в мире бесплатный архив песенных текстов, аккордов, табулатур и нот


Donnas - All Messed Up - текст песни, таба, видео

Регистрация Запомнить меня
Войти через:  Facebook Google Twitter Vk Yandex Mail.ru

Donnas - All Messed Up - текст песни, таба, видео

Печатать
Просмотров: 142
All Messed Up

Intro 1 (and chorus) (2x)

  B    G  E   D E    B   D  A  B  A B  *1st time only
--------------------------------------|----------------------|
--------------------------------------|----------------------|
--4----12-9---7-9-9--4---7--2--4--2-4-|-4-4------------------|
--4----12-9---7-9-9--4---7--2--4--2-4-|-4-4------------------|
--2----10-7---5-7-7--2---5--0--2--0-2-|-2-2------------------|
--------------------------------------|----------------------|


Intro 2 (and chorus) (2x)

  B          D     A  B  A  B
---------------------------------|
---------------------------------|
--44-4-4-4-4-7-7-7-2--4--2--4----|
--44-4-4-4-4-7-7-7-2--4--2--4----|
--22-2-2-2-2-5-5-5-0--2--0--2----|
---------------------------------|
PM................


Verse (2x)

  B           E *               B     D  A  B  A B
-------------------------0-------------------------------|
----------------0----3p0---------------------------------|
--4--4--4--------1--------------4-----7--2--4--2-4-------|
--4--4--4-----2---2-------------4-----7--2--4--2-4-------|
--2--2--2-----2-----------------2-2-2-5--0--2--0-2-------|
----------3-2-0------------------------------------------|
                                  PM.

                 * this part is a slightly different each time, just
                  improvise, unless you really want a tab of it

 B            B D       D  D  B
--------------------------------------------------------------------|
--------------------------------------------------------------------|
-99-9---------9-7-------7--7----------------------------------------|
-99-9---------9-7-------7--7----------------------------------------|
-77-7---------7-5-------5--5--9-9-11-9-9-9-11-9-9-9-11-9-12-9-11-9--|
--------0-0-0-----0-0-0-------7-7--7-7-7-7--7-7-7-7--7-7--7-7--7-7--|


 B        B D       D  D  F#                E
----------------------------------------2----------------------|
----------------------------------------2----------------------|
-9--------9-7-------7--7----------------3---9-9-9----9---------|
-9--------9-7-------7--7--4-4-4-4-4-4-4-----9-9-9-11-9-12------|
-7--------7-5-------5--5--4-4-4-4-4-4-4-----7-7-7--7-7--7------|
----0-0-0-----0-0-0-------2-2-2-2-2-2-2------------------------|


Chorus- Intro 1 (2x), Intro 2 (2x)

Guitar Solo

--7--7-7--7--7-7--7--7---7--7-7--7--7-7--7--7--|
-10^-----10^-----10^---10^-----10^------10^----|
-----------------------------------------------|
-----------------------------------------------|
-----------------------------------------------|
-----------------------------------------------|


---------------------------|
-----7-----7-----7---------|
-7h9---7h9---7h9---7h9-----|
-----------------------9~--|
---------------------------|
---------------------------|

---------------------------------------------------|
-------12-----12-12-----12-------12----12-12-------|
-11h13----13^-------13^----11h13----13^------13^---|
---------------------------------------------------|
---------------------------------------------------|
---------------------------------------------------|


-----------------------------------|
-----------------------------------|
-----7-9---7-9---7-9---7-9---7-9-7-|
--9------9-----9-----9-----9-------|
-----------------------------------|
-----------------------------------|
     PM.......

----------------------------------------------------|
-------10--------------------------10---------------|
----9^----9^9-7-9-7----7----7-9-9^----9^9--7*-9-7\--| *= harmonic
---------------------9---/9-------------------------|
----------------------------------------------------|
----------------------------------------------------|

3rd verse, chorus, same as before

End- (2x)

 B       G        E      D E D E D B       D     A  D  A D
-------------------------------------------------------------|
-------------------------------------------------------------|
-4-4-4-4-12-12-12-9--9-9-7-9-7-9-7-4-4-4-4-7-7-7-2--4--2-4---|
-4-4-4-4-12-12-12-9--9-9-7-9-7-9-7-4-4-4-4-7-7-7-2--4--2-4---|
-2-2-2-2-10-10-10-7--7-7-5-7-5-7-5-2-2-2-2-5-5-5-0--2--0-2---|
-------------------------------------------------------------|

 B     G    B
-2-----3----2-2-2--|
-4-----3----4-4-4--|
-4-----4----4-4-4--|
-4-----5----4-4-4--|
-2-----5----2-2-2--|
-------3-----------|
Добавлено: 02.06.2012
Другие материалы по этой песне:
  • Аккорды и текст

Страница создана 27.03.2012
http://primanota.ru/donnas/all-messed-up-chords.htm
Привет, Гость.
Предлагаем пройти революционный курс по гитаре.
Подарок от PrimaNota.Ru, забирай!