PrimaNota.ru - самый крупный в мире бесплатный архив песенных текстов, аккордов, табулатур и нот


Donna Cruz - Alam Mo Na Diba - аккорды и текст, видео

Регистрация Запомнить меня
Войти через:  Facebook Google Twitter Vk Yandex Mail.ru

Donna Cruz - Alam Mo Na Diba - аккорды и текст, видео

Печатать
Просмотров: 124
Alam Mo Na Diba
Donna Cruz
Artist: Sugarpop / Donna Cruz
Tabbed by: Alnel Vincent T. Alico
Email: alnelextreme@yahoo.com

STANDARD TUNING
No capo

Chords:

    EADGBe      EADGBe      EADGBe

A   x02220  G   320003  Em  022000
E   022100  D#m xx1342  Bm  x04432
C#  x46664  Bbm x13321   
F#m 244222  G#  466544   
D   xx0232  Gm  355333

Intro: (let's use the guitar as piano)

e|----------------------a------------------------b-|
B|-2---5-3--2----------2----2---5-3--2-------------|
G|--------------4-4-4-2------------------4---4-22--|
D|-------------------------------------------------|
A|-------------------------------------------------|
E|-------------------------------------------------|

e|a:--0---------0--------|b:--0--------------------|
B|------------2----------|------------2------------|
G|------2-2-4------------|------2-2-4--------------|
D|-----------------------|-------------------------|
A|-----------------------|-------------------------|
E|-----------------------|-------------------------|

Note: The "22" is two 2's, not a twenty-two.
      For "a" and "b", play the corresponding in the second part.

Verse 1:

     A           E
   Iba na yata itong nararamdaman
     A                     C#          F#m
   'Di makakain, 'di makatulog man lang
      D          G         A          F#m
   Minamahal kita, 'wag sanang magtaka
          D#m             A          E
   Pinatibok mo ang puso kahit noon pa..

       A               E
   Pangarap kita ha kapag ako ay gising
      A                  C#           F#m
   Tulog man ako ho panaginip ka pa rin
      D             G    A             F#m
   Tumitibok itong puso dahil narito ka
         D#m                 C#
   Alam kong alam mo na 'di ba?

Chorus:

     F#m           D#m      C#       Bbm
   Unang tibok ng puso kasabay ay kaba
        D#m        G#      C#
   May nangyayari sati'ng tila kakaiba
     F#m         D#m     C#          Bbm
   Ibigin man kita 'wag kang magtataka
         D#m        C#          D#m   C#
   Alam nating dalawa, alam mo na di ba?

e|-------------------------------------------------|
B|-6---9-7--6----------6----2---5-3--2-------------|
G|--------------8-8-8-6------------------4-4-4-22--|
D|-------------------------------------------------|
A|-------------------------------------------------|
E|-------------------------------------------------|

Or alternatively, if you're using an open chord C# (x43121)..

e|-1---4-2--1----------1---------------------------|
B|--------------4-4-4-2-----2---5-3--2-------------|
G|---------------------------------------4-4-4-22--|
D|-------------------------------------------------|
A|-------------------------------------------------|
E|-------------------------------------------------|

Verse 2:

       A                  E
   Gusto kong sabihing minamahal kita
    A                   C#           F#m
   Kahit na alam kong ito'y alam mo na
      D       G                A         F#m
   Kumakaba itong dibdib nang dahil sa iyo
    D#m                      A         E
   Di man ako kumikibo alam kong alam mo..

          A              E
   Hinahanap kita ha sa bawat saglit
       A                 C#     F#m
   Pangalan mo lagi ang nasasambit
      D           G          A        F#m
   Pusong nagmamahal ganyan yata talaga
         D#m             C#
   Alam kong alam na di ba?

Chorus:

     F#m           D#m      C#       Bbm
   Unang tibok ng puso kasabay ay kaba
        D#m        G#      C#
   May nangyayari sati'ng tila kakaiba
     F#m         D#m     C#          Bbm
   Ibigin man kita 'wag kang magtataka
         D#m        C#          D#m   C#
   Alam nating dalawa, alam mo na di ba?

Chorus: (1 fret/semitone higher)

 A   Gm           Em       D        Bm
   Unang tibok ng puso kasabay ay kaba
        Em         A       D
   May nangyayari sati'ng tila kakaiba
     Gm         Em      D           Bm
   Ibigin man kita 'wag kang magtataka
         Em         D           Em    D
   Alam nating dalawa, alam mo na di ba?

e|-2---5-3--2----------2----2---5-3--2-------------|
B|--------------5-5-5-3------------------5-5-5-33--|
G|-------------------------------------------------|
D|-------------------------------------------------|
A|-------------------------------------------------|
E|-------------------------------------------------|

                         D

e|-2------------10-12-14-5-------------------------|
B|-----3-5-7-10----------7-------------------------|
G|---2-------------------7-------------------------|
D|-----------------------7-------------------------|
A|-----------------------5-------------------------|
E|-------------------------------------------------|

Note: Same way, it's two 3's, not a thirty-three.
Sorry for being that obvious the whole time. :P


        
Enjoy :)
-AlnelExtreme-
Добавлено: 06.08.2015
Другие материалы по этой песне:
  • Аккорды и текст

Страница создана 06.08.2015
http://primanota.ru/donna-cruz/alam-mo-na-diba-chords.htm
Привет, Гость.
Предлагаем пройти революционный курс по гитаре.
Подарок от PrimaNota.Ru, забирай!