PrimaNota.ru - самый крупный в мире бесплатный архив песенных текстов, аккордов, табулатур и нот


Don Tetto - Dime - таба, видео

Регистрация Запомнить меня
Войти через:  Facebook Google Twitter Vk Yandex Mail.ru

Don Tetto - Dime - таба, видео

Печатать
Просмотров: 198
INTRO GUITARRA RITMICA:
E|-----------------------------------------------------|
B|-----------------------------------------------------|
G|-7XXXX7XXXX77----------------------------------------| X2
D|-7XXXX7XXXX77-9XXXX9XXXX99-5XXXX5XXXX55-7XXXX7XXXX77-|
A|-5XXXX5XXXX55-9XXXX9XXXX99-5XXXX5XXXX55-7XXXX7XXXX77-|
E|--------------7XXXX7XXXX77-3XXXX3XXXX33-5XXXX5XXXX55-|

E|--------------------------------------------------------|
B|--------------------------------------------------------|
G|-7XXXX7XXXX77---------------------------7-------7-------|
D|-7XXXX7XXXX77-7XXXX7XXXX77-5XXXX5XXXX55-7-7-9-7-7-9-5-7-|
A|-5XXXX5XXXX55-7XXXX7XXXX55-5XXXX5XXXX55-5-7-9-7-5-9-5-7-|
E|--------------5XXXX5XXXX55-3XXXX3XXXX33---5-7-5---7-3-5-|

E|-----------------------------------------------------|
B|-----------------------------------------------------|
G|-7777777777777---------------------------------------|
D|-7777777777777-99999999999-555555555555-777777777777-| X2
A|-5555555555555-99999999999-555555555555-777777777777-|
E|---------------77777777777-333333333333-555555555555-|

INTRO GUITARRA LIDER:
E|-----------------------------------------------------|
B|-----------------------------------------------------|
G|-----------------------------------------------------|
D|------7----------------------------------------------|
A|-5-----------------9-------------5-----------7-7s9-7-|
E|--------------7------------3------------5------------|

E|----------------------------------------------------------|
B|----------------------------------------------------------|
G|----------------------------------------7-5-4-------------|
D|---7------------------------------------------5-------5---|
A|-5-----------------9-------------5--------------5-7-9---7-|
E|--------------7------------3------------------------------|

E|---------------------------------------------------------------|
B|---------------------------------------------------------------|
G|-7777777777777-999999999999-1111111111111111-13131313-11111111-|
D|-XXXXXXXXXXXXX-XXXXXXXXXXXX-X-X-X-X-X-X-X-X--X-X-X-X--X-X-X-X--|
A|-5555555555555-777777777777-9-9-9-9-9-9-9-9--11111111-9-9-9-9--|
E|---------------------------------------------------------------|

D5
Si nunca me mentiste
B5
No se porque lo hiciste
G5                    A5
Diciendome que me querías

Riff 1

D5
Trate de descubrirte
B5
Lo unico que hiciste fue
G5                   A5
Meterme en esta tonteria

G5         A5        B5
Te seguire queriendo
A5                   Riff 2
Tu me seguiras mintiendo
G5      A5        B5
Tratare de escaparme
A5                      B5
Espero ya no sea muy tarde

CORO:
D5                     E5
Dime dime dime que mi amor
                G5
No quedara en tu corazon
 A5
Como una nube de recuerdos
D5                       E5
Dime dime dime que al final
                       G5
No queda mas que aguantar
                       A5
Todo el dolor que estoy sintiendo

   D5            B5           G5               A5
E|---------------------------------------------------------------|
B|---------------------------------------------------------------|
G|-7777777777777-999999999999-1111111111111111-13131313-11111111-| x2
D|-XXXXXXXXXXXXX-XXXXXXXXXXXX-X-X-X-X-X-X-X-X--X-X-X-X--X-X-X-X--|
A|-5555555555555-777777777777-9-9-9-9-9-9-9-9--11111111-9-9-9-9--|
E|---------------------------------------------------------------|

D5~~
De aquel supuesto amor
Que un dia nos unio
Hoy ya no queda ni el recuerdo

Riff 1

D5
Mis amigos me dicen
B5
Que no vales la pena
G5                  A5
Que te olvide a mi manera

G5         A5        B5
Te seguire queriendo
A5                   Riff 2
Tu me seguiras mintiendo
G5      A5        B5
Tratare de escaparme
A5                      B5
Espero ya no sea muy tarde

CORO:

E|-----------------------------------------------------|
B|-----------------------------------------------------|
G|-7XXXX7XXXX77----------------------------------------|
D|-7XXXX7XXXX77-9XXXX9XXXX99-5XXXX5XXXX55-7XXXX7XXXX77-|
A|-5XXXX5XXXX55-9XXXX9XXXX99-5XXXX5XXXX55-7XXXX7XXXX77-|
E|--------------7XXXX7XXXX77-3XXXX3XXXX33-5XXXX5XXXX55-|

(INTROS GUITARRAS 1 Y 2)
Ya no quiero mas no te quiero mirar
Tratemos no de hablar tu sabes que no puedo
Ya no puedo mas no te puedo mirar
Tu bien sabes que, me haces daño y me haces mal

CORO:

FINAL:
E|---------------------------------------------------|
B|---------------------------------------------------|
G|-7777-9999-111111-131313-141414-151515-161616-17~~-|
D|-XXXX-XXXX-X-X-X--X-X-X--X-X-X--X-X-X--X-X-X--X----|
A|-5555-7777-9-9-9--111111-121212-131313-141414-15~~-|
E|---------------------------------------------------|

RIFF 1:
E|-----------|
B|-----------|
G|-----------|
D|-7-5-4-----|
A|-------5v--|
E|-----------|

RIFF 2:
E|----------------------|
B|----------------------|
G|--77-7-77-7-77-7-77-7-|
D|--77-7-77-7-77-7-77-7-|
A|--55-5-55-5-55-5-55-5-|
E|----------------------|
    **   **   **   **

ACORDES:
E|----X----X----X----X-----X----| s = Slide
B|----X----X----X----X-----X----| v = Vibrato
G|----7----X----X----X-----9----| * = Palm mute
D|----7----7----5----9-----9----| ~ = Let ring
A|----5----7----5----9-----7----| X = Nota muerta
E|----X----5----3----7-----X----|
      D5   A5   G5   B5    E5
Добавлено: 02.04.2012
Другие материалы по этой песне:
  • Аккорды и текст

Страница создана 02.04.2012
http://primanota.ru/don-tetto/dime-chords.htm
Привет, Гость.
Предлагаем пройти революционный курс по гитаре.
Подарок от PrimaNota.Ru, забирай!