PrimaNota.ru - самый крупный в мире бесплатный архив песенных текстов, аккордов, табулатур и нот


Don Henley - Land Of The Living - текст песни, бас-таба, видео

Регистрация Запомнить меня
Войти через:  Facebook Google Twitter Vk Yandex Mail.ru

Don Henley - Land Of The Living - текст песни, бас-таба, видео

Печатать
Просмотров: 130
Авторы музыки: Danny Kortchmar, Don Henley
Авторы текста: Danny Kortchmar, Don Henley
SONG: Land of the Living
ARTIST: Don Henley
TABBED BY: Timmy Morrison
E-MAIL: bass_bassist@hotmail.com

*************************************************

Intro:
G|---------|-------------|-----------|-------|---------|-------|-----|
D|---------|---0-1-2-----|-----------|-------|---------|-------|-----|
A|-3-3---3-|-3-------3---|-----------|-------|---3-5---|-------|-----|
E|-----3---|-----------0-|-1-1-1---3-|-5-5-5-|-5-----3-|-1-1-1-|-1-3-|

|-------------|------------|-------|-----------|-------|-5-4-7---|-------------|
|-------------|---0-1-2----|-------|-3-4-5-----|-------|-------5-|-------------|
|-----3-3---3-|-3------3---|-------|-------5---|-------|---------|-------------|
|-5-3-----3---|----------0-|-1-1-1-|---------3-|-5-5-5-|---------|-1-1-1---1-3-|

Verse 1:
|-------|-------|-------|-------|-------|-------------|-12-10-9----------|
|-------|-------|-------|-------|-------|-------------|------------------|
|-------|-------|-------|-------|-------|-------------|------------------|
|-1---1-|-1-0-0-|-1---1-|-5-5-3-|-1---1-|-1-0-0-1---1-|---------12-10-8~-|

|-------|-------|-------|-------|
|-------|-------|-------|-------|
|-------|-------|-------|-------|
|-1---1-|-1-0-0-|-1---1-|-5-5-3-|

Pre-chorus:
|-----------------|-------|-------|---|
|---3-5-6-5-3-----|-------|-------|---|
|-------------6-5-|-------|-------|-5-|
|-1---------------|-0---1-|-3-4-5-|---|

Chorus:
|---------|-------------|-------|-----------|-------|----------------|-------|-----|
|---------|---0-1-2-----|-------|-3-4-5-----|-------|----------------|-------|-----|
|-3-3---3-|-3-------3---|-------|-------5---|-------|---7-10-9-7-----|-------|-----|
|-----3---|-----------0-|-1-1-1-|---------3-|-5-5-5-|-7----------5-3-|-1-1-1-|-1-3-|

Verse 2:
|-------|-------|-------|-------|-------|-------------|----------12~----------17~-|
|-------|-------|-------|-------|-------|-------------|-14-12-10-----14-15-14-----|
|-------|-------|-------|-------|-------|-------------|---------------------------|
|-1---1-|-1-0-0-|-1---1-|-5-5-3-|-1---1-|-1-0-0-1---1-|---------------------------|

|-------|-------|-------|-------|
|-------|-------|-------|-------|
|-------|-------|-------|-------|
|-1---1-|-1-0-0-|-1---1-|-5-5-3-|

Pre-chorus:
|-----------------|---------|---|---|
|---3-5-6-5-3-----|---------|---|---|
|-------------6-5-|-2-------|---|-5-|
|-1---------------|---3-0-1-|-5-|---|

Chorus:
|---------|-------------|-------|----------|-------|---------|-------|---|
|---------|---0-1-2-----|-------|3-4-5-----|-------|---------|-------|---|
|-3-3---3-|-3-------3---|-------|------5---|-------|---3-5---|-------|---|
|-----3---|-----------0-|-1-1-1-|--------3-|-5-5-5-|-5-----3-|-1-1-1-|-3-|

Bridge:
|---|---|---|---|-------|-------|-------|----------------------|-------|----|---|-------|
|---|---|---|---|-------|-------|-------|----10-12-------------|-------|----|---|-------|
|--DON'T PLAY!--|-3---3-|-------|-3---3-|-12-------10-/-12-10~-|-3---3-|----|---|-------|
|---|---|---|---|-------|-3-5-3-|-------|----------------------|-------|--3-|-3-|-3-5-3-|

Chorus:
|---------|-------------|-------|-----------|-------|-5-4-7---|-------|-------|-----|
|---------|---0-1-2-----|-------|-3-4-5-----|-------|-------5-|-------|-------|-----|
|-3-3---3-|-3-------3---|-------|-------5---|-------|---------|-------|-------|-----|
|-----3---|-----------0-|-1-1-1-|---------3-|-5-5-5-|---------|-1-1-1-|-1-3-1-|-5-3-|



|---------|-------------|-------|-------------|-------|---------|-------|---------|
|---------|---0-1-2-----|-------|-3-4-5-------|-------|---------|-------|---------|
|-3-3---3-|-3-------3---|-------|-------5-----|-------|---3-5---|-------|---------|
|-----3---|-----------0-|-1-1-1-|---------3-4-|-5-5-5-|-5-----3-|-1-1-1-|-1-3-5-3-|

|---------|----------5-|-------|-------|-------|------------|-------|---|
|---------|---0-1-2----|-3-----|-------|-------|-10-9-7-5---|-------|---|
|-3-3---3-|-3----------|---3---|-------|-------|----------3-|-------|---|
|---------|------------|-----1-|-1-1-3-|-5-5-5-|------------|-1-1-1-|-3-| FADE...
Добавлено: 19.03.2012
Другие материалы по этой песне:
  • Аккорды и текст

Страница создана 04.03.2012
http://primanota.ru/don-henley/land-of-the-living-chords.htm
Привет, Гость.
Предлагаем пройти революционный курс по гитаре.
Подарок от PrimaNota.Ru, забирай!