PrimaNota.ru - самый крупный в мире бесплатный архив песенных текстов, аккордов, табулатур и нот


Don Felder - Takin A Ride - бас-таба, видео

Регистрация Запомнить меня
Войти через:  Facebook Google Twitter Vk Yandex Mail.ru

Don Felder - Takin A Ride - бас-таба, видео

Печатать
Просмотров: 154
--------------------------------------------------------------------
			     Takin' A Ride - Don Felder
--------------------------------------------------------------------
Tabbed By : the_1one1


Tuning: standard
E A D G


Intro (X2)

G------------------|--------------|------------------|--------------|
D------------------|--------------|------------------|--------------|
A--5h7-------------|--------------|------------------|--------------|
E-------0--0--0----|--0-0-0-0-----|--3h5--5--5--5----|--5-5-5-3-----|

G------------------|--------------|------------------|--------------|
D------------------|--------------|------------------|----7---5-----|
A--5h7-------------|--------------|------------------|--7---7-------|
E-------0--0--0----|--0-0-0-0-----|--3h5--5--5--5----|--------------|



Verse 1

G------------------|--------------|------------------|--------------|
D------------------|--------------|------------------|--------------|
A--5h7-------------|--------------|------------------|--------------|
E-------0--0--0----|--0-0-0-0-----|--3h5--5--5--5----|--5-5-5-3-----|

G------------------|--------------|------------------|--------------|
D------------------|--------------|------------------|----7---5-----|
A--5h7-------------|--------------|------------------|--7---7-------|
E-------0--0--0----|--0-0-0-0-----|--3h5--5--5--5----|--------------|


G------------------|--------------|------------------|--------------|
D------------------|--------------|------------------|--------------|
A--5h7-------------|--------------|------------------|--------------|
E-------0--0--0----|--0-0-0-0-----|--3h5--5--5--5----|--5-5-5-3-----|

G------------------|--------------|------------------|--------------|
D------------------|--------------|------------------|--------------|
A--5h7-------------|--------------|------------------|--------------|
E-------0--0--0----|--0-0-0-0-----|--3h5--5----5-3-2-|-0------------|


Chorus

G------------------|--------------|------------------|--------------|
D------------------|--------------|------------------|--------------|
A------------------|--------------|--5h7-------------|--------------|
E--5---------------|--3-----------|-------0--0--0----|--0-0-0-0-----|

G------------------|--------------|------------------|--------------|
D------------------|--------------|------------------|--------------|
A----------------3-|--3-4-5-------|--5h7-------------|--------------|
E--5---------5-7---|--------------|-------0--0--0----|--0-0-0-0-----|

*play X2*


G------------------|--------------|
D------------------|--------------|
A------------------|--------------|
E--3h5--5--5--5----|--5-5-5-3-----|

G------------------|--------------|------------------|--------------|
D------------------|--------------|------------------|----7---5-----|
A--5h7-------------|--------------|------------------|--7---7-------|
E-------0--0--0----|--0-0-0-0-----|--3h5--5--5--5----|--------------|




Verse 2

G------------------|--------------|------------------|--------------|
D------------------|--------------|------------------|--------------|
A--5h7-------------|--------------|------------------|--------------|
E-------0--0--0----|--0-0-0-0-----|--3h5--5--5--5----|--5-5-5-3-----|

G------------------|--------------|------------------|--------------|
D------------------|--------------|------------------|----7---5-----|
A--5h7-------------|--------------|------------------|--7---7-------|
E-------0--0--0----|--0-0-0-0-----|--3h5--5--5--5----|--------------|

G------------------|--------------|------------------|--------------|
D------------------|--------------|------------------|--------------|
A--5h7-------------|--------------|------------------|--------------|
E-------0--0--0----|--0-0-0-0-----|--3h5--5--5--5----|--5-5-5-3-----|

G------------------|--------------|------------------|--------------|
D------------------|--------------|------------------|--------------|
A--5h7-------------|--------------|------------------|--------------|
E-------0--0--0----|--0-0-0-0-----|--3h5--5----5-3-2-|-0------------|



Chorus

G------------------|--------------|------------------|--------------|
D------------------|--------------|------------------|--------------|
A------------------|--------------|--5h7-------------|--------------|
E--5---------------|--3-----------|-------0--0--0----|--0-0-0-0-----|

G------------------|--------------|------------------|--------------|
D------------------|--------------|------------------|--------------|
A----------------3-|--3-4-5-------|--5h7-------------|--------------|
E--5---------5-7---|--------------|-------0--0--0----|--0-0-0-0-----|

*play X2*


G------------------|--------------|
D------------------|--------------|
A------------------|--------------|
E--3h5--5--5--5----|--5-5-5-3-----|

G------------------|--------------|------------------|--------------|
D------------------|--------------|------------------|----7---5-----|
A--5h7-------------|--------------|------------------|--7---7-------|
E-------0--0--0----|--0-0-0-0-----|--3h5--5--5--5----|--------------|




Closing Solo

G------------------|--------------|------------------|--------------|
D------------------|--------------|------------------|--------------|
A--5h7-------------|--------------|------------------|--------------|
E-------0--0--0----|--0-0-0-0-----|--3h5--5--5--5----|--5-5-5-3-----|

G------------------|--------------|------------------|--------------|
D------------------|--------------|------------------|----7---5-----|
A--5h7-------------|--------------|------------------|--7---7-------|
E-------0--0--0----|--0-0-0-0-----|--3h5--5--5--5----|--------------|


*play X6*
Добавлено: 22.07.2012
Вам также может быть интересно:
Другие материалы по этой песне:
  • Аккорды и текст

Страница создана 22.07.2012
http://primanota.ru/don-felder/takin-a-ride-chords.htm
Привет, Гость.
Предлагаем пройти революционный курс по гитаре.
Подарок от PrimaNota.Ru, забирай!