PrimaNota.ru - самый крупный в мире бесплатный архив песенных текстов, аккордов, табулатур и нот


Don Felder - Heavy Metal Takin A Ride - таба, бас-таба, видео

Регистрация Запомнить меня
Войти через:  Facebook Google Twitter Vk Yandex Mail.ru

Don Felder - Heavy Metal Takin A Ride - таба, бас-таба, видео

Печатать
Просмотров: 334
-------------------------------------------------------------------------------
Heavy Metal (Taking a ride) - Don Felder
-------------------------------------------------------------------------------
Tabbed by: Jayez

Tuning: EADGBe

Easy song, heres a tab of the intro. Figure out the rhythm.

GUITAR 1:

e|---------------------------------------------------------------------------------------|
B|-o--------------------------------------------o----(only played second time)-----------|
G|---7-9-----------------------------------------------x-x-------------------------------|
D|---7-9--------------------5-7----------------------x-x-7-5~~~--------------------------|
A|-o-5-7-7-7-7-7-7-7-7-5-7---------------o------x-x--------------------------------------|
E|---------------------------3-5-5-5-5-5-5-5-5----x-x-5-3--------------------------------|

GUITAR 2 :

These are the phrases played during the intro. Use a delay pedal.
e|----------------------------------------------------------------------------------------------|
B|-----------------------------------------------------------------------------10b----5-8p5-8-8b|
G|--/9~-9~-9~-9~~~~~~----------7-7--------------------------------------------------------------|
D|-------------------------------------7b-----r7-5~~~~~~~~~~------------------------------------|
A|----------------------------------------------------------------------------------------------|
E|----------------------------------------------------------------------------------------------|

e|-----10----------------------------------------------------------------------------|
B|-10b----10b-10-8-------------------------------------------------------------------|
G|------------------------9~~~~~~~~--------------------------------------------------|
D|-----------------------------------------------------------------------------------|
A|-----------------------------------------------------------------------------------|
E|-----------------------------------------------------------------------------------|

| / slide up
| \ slide down
| h hammer-on
| p pull-off
| ~ vibrato
| + harmonic
| x Mute note
================================================== =============================
Добавлено: 19.03.2012
Вам также может быть интересно:
Другие материалы по этой песне:

Страница создана 29.02.2012
http://primanota.ru/don-felder/heavy-metal-takin-a-ride-chords.htm
Привет, Гость.
Предлагаем пройти революционный курс по гитаре.
Подарок от PrimaNota.Ru, забирай!