PrimaNota.ru - самый крупный в мире бесплатный архив песенных текстов, аккордов, табулатур и нот


Don Ellis - Go Back Home - бас-таба, видео

Регистрация Запомнить меня
Войти через:  Facebook Google Twitter Vk Yandex Mail.ru

Don Ellis - Go Back Home - бас-таба, видео

Печатать
Просмотров: 97
Уроки эстрадного вокала в Санкт-Петербурге
Авторы музыки: Sam Falzone

                                  Go Back Home
                                   Don Ellis

Tabbed By: Dominic_HD
Es lo mejor que pude hacer en menos de 2 horas. no creo que la afinación estándar
sea la correcta pero como la hice a petición no puedo modificarla.

Bass:

     E  E  E  E  E  E  E  E     E  E  E  E  E  E  E  E   
G||--------------------------|--------------------------|
D||--------------------------|--------------------------|
A||--1--1--4--4--3--3--2--2--|--1--1--4--4--3--3--2--2--|
E||--------------------------|--------------------------|


  E  E  E  E  E  E  E  E     E  E  E  E  E  E  E  E   
--3--3--6--6--5--5--4--4--|--3--3--6--6--5--5--4--4--|
--------------------------|--------------------------|
--------------------------|--------------------------|
--------------------------|--------------------------|


  E  E  E  Q    E  Q       E  E  E  E  E  E  Q     
--3--3--3-------3--6----|--3--3--3--1--3--3-------|
------------------------|-------------------------|
------------------------|-------------------------|
------------------------|-------------------------|


  E  E  E  Q    E  Q       E  E  E  E  E  E  E  E   
--3--3--3-------3--6----|--3--3--3--1--3--3--------|
------------------------|--------------------------|
------------------------|--------------------------|
------------------------|-----------------------4--|


  E  E  E  Q    E  Q       E  E  E  E  E  E  E  E   
------------------------|--------------------------|
------------------------|--------------------------|
--1--1--1-------1--4----|--1--1--1-----1--1--------|
------------------------|-----------4-----------4--|


  E  E  E  Q    E  Q       E  E  E  E  E  E  S S S S  
------------------------|----------------------------|
------------------------|----------------------------|
--1--1--1-------1--4----|--1--1--1-----1--1------4-6-|
------------------------|-----------4--------4-6-----|


  E  E  E.  S E.  S Q       E  E  E.  S E.  S Q     
-------------------------|-------------------------|
--------------------1----|--------------------1----|
--1--1------1-4---4------|--1--1------1-4---4------|
-------------------------|-------------------------|


  E  E  E.  S E.  S Q       E  E  E.  S E.  S Q     
-------------------------|-------------------------|
--------------------1----|--------------------1----|
--1--1------1-4---4------|--1--1------1-4---4------|
-------------------------|-------------------------|


  E  E  E.  S E.  S Q       E  E  E.  S E.  S Q     
-------------------------|-------------------------|
--------------------1----|--------------------1----|
--1--1------1-4---4------|--1--1------1-4---4------|
-------------------------|-------------------------|


  E  E  E.  S E.  S Q       E  E  E.  S E.  S Q     
-------------------------|-------------------------|
--------------------1----|--------------------1----|
--1--1------1-4---4------|--1--1------1-4---4------|
-------------------------|-------------------------|


  E  E  E.  S E.  S Q       E  E  E.  S E.  S Q     
-------------------------|-------------------------|
--------------------1----|--------------------1----|
--1--1------1-4---4------|--1--1------1-4---4------|
-------------------------|-------------------------|


  E  E  E.  S E.  S Q       E  E  E.  S E.  S Q     
-------------------------|-------------------------|
--------------------1----|--------------------1----|
--1--1------1-4---4------|--1--1------1-4---4------|
-------------------------|-------------------------|


  E  E  E.  S E.  S Q       E  E  E.  S E.  S Q     
-------------------------|-------------------------|
--------------------1----|--------------------1----|
--1--1------1-4---4------|--1--1------1-4---4------|
-------------------------|-------------------------|


  E  E  E.  S E.  S Q       E  E  E.  S E.  S S S S S  
-------------------------|------------------------1-3-|
--------------------1----|--------------------1-3-----|
--1--1------1-4---4------|--1--1------1-4---4---------|
-------------------------|----------------------------|


  E  E  E  Q    E  Q       E  E  E  E  E  E  Q     
--3--3--3-------3--6----|--3--3--3--1--3--3-------|
------------------------|-------------------------|
------------------------|-------------------------|
------------------------|-------------------------|


  E  E  E  Q    E  Q       E  E  E  E  E  E  S S S S  
--3--3--3-------3--6----|--3--3--3--1--3--3----------|
------------------------|--------------------------1-|
------------------------|----------------------1-4---|
------------------------|--------------------4-------|


  E  E  E  Q    E  Q       E  E  E  E  E  E  S S S S  
--3--3--3-------3--6----|--3--3--3--1--3--3----------|
------------------------|----------------------------|
------------------------|------------------------4-6-|
------------------------|--------------------4-6-----|


  E  E  S S S S E  Q    E     E  E  E  E  E  E  S S E   
--3--3--3-3-1-----------3--|-----------1--3--3--1------|
--------------3----3-------|-----3----------------3----|
----------------1----------|------------------------1--|
---------------------------|---------------------------|


  E  E  E  E  E  E  E  E     E  E  E  E  E  E  E  E   
-----------------------0--|--L-----------0--0--2--3--|
--------0-----3--3--0-----|--------0-----------------|
--L--1-----1--------------|-----1-----1--------------|
--------------------------|--------------------------|


  E  E  E  E  E  E  E  E     E  E  E  E  E  E  E  E   
--------0--3-----------3--|-----------2-----3--3-----|
--1--1--------3--3--------|-----3--------------------|
--------------------------|-----------------------1--|
--------------------------|--------------------------|


  E  E  E  E  E  E  E  E     E  E  E  E  E  E  E  E    
-----------------------0--|--L-----------0--0--0------|
--------0-----3--3--0-----|--------0------------------|
--L--1-----1--------------|-----1-----1-----------5\--|
--------------------------|---------------------------|


  E  E  E  E  E  E  E  E     Q.     E  E   S  S  S  S  E    
--------0--3-----------3--|--L------------15-13------------|
--1--1--------3--3--------|---------------------15-13-11\--|
--------------------------|---------1----------------------|
--------------------------|--------------------------------|


  E  E  E  Q    E  Q       E  E  E  E  E  E  Q     
------------------------|-------------------------|
------------------------|-------------------------|
-------------------4----|-------------------------|
--6--6--6-------6-------|--6--6--6--4--6--6-------|


  E  E  E  Q    E  Q       E  E  E  E  E  E  S S S S  
------------------------|----------------------------|
------------------------|------------------------6-8-|
-------------------4----|--------------------6-8-----|
--6--6--6-------6-------|--6--6--6--4--6--6----------|


  E  E  E  E  E  E  E  E     E  E  E  E  E  E  E  E   
--------------------------|--------------------------|
--8--8--8--8--8--8--8--8--|--8--8--8--8--8--8--8--8--|
--------------------------|--------------------------|
--------------------------|--------------------------|


  E  E  E  E  E  E  E  E     E  E  E  E  E  E  E  E   
--------------------------|--------------------------|
--8--8--8--8--8--8--8--8--|--8--8--8--8--8--8--8--8--|
--------------------------|--------------------------|
--------------------------|--------------------------|


  E  E  E  Q    E  Q       E  E  E  E  E  E  S S S S  
------------------------|------------------------1-3-|
------------------------|--------------------1-3-----|
--1--1--1-------1--4----|--1--1--1-----1--1----------|
------------------------|-----------4----------------|


  E  E  E  Q    E  Q       E  E  E  E  E  E  S S S S  
------------------------|------------------------1-3-|
------------------------|--------------------1-3-----|
--1--1--1-------1--4----|--1--1--1-----1--1----------|
------------------------|-----------4----------------|


  E  E  E  Q    E  Q       E  E  E  E  E  S S S S S S  
------------------------|---------------------1-3-----|
------------------------|-----------------1-3-----1-3-|
--1--1--1-------1--4----|--1--1--1-----1--------------|
------------------------|-----------4-----------------|


  E  E  E  E  H           H.           Q        H.           Q     
-----------------------|---------------------|--------------------|
-----------------------|--1------------3\----|---------------1----|
--1--1-----4-----------|---------------------|--------------------|
-----------------------|---------------------|--1-----------------|


  H        H            W                   E  E  E  E  E  E  E  E   
---------------------|-------------------|--------------------------|
--L--------L\--------|-------------------|--------------------------|
---------------------|--1----------------|--1--1--1--1--1--1--1--1--|
---------------------|-------------------|--------------------------|


  E  E  E  E  E  E  S S E     E  E  E  E  E  E  E  E   
-----------------3--1------|-----------------------0--|
----------------------3----|--------0-----3--3--0-----|
--1--1--1--1--1---------1--|--L--1-----1--------------|
---------------------------|--------------------------|


  E  E  E  E  E  E  E  E     E  Q    E  E  Q    E   
--L-----------0-----------|---------------------3--|
--------0-----------0-----|--1--1-------3--3-------|
-----1-----1-----1-----1--|----------1-------------|
--------------------------|------------------------|


  E  E  E  E  E  E  E  E     E  E  E  E  E  E  E  E   
-----------0-----2-----3--|--L--------------------0--|
-----3--------------------|--------0-----3--3--0-----|
--------------------------|-----1-----1--------------|
--------------------------|--------------------------|


  E  E  E  E  E  E  E  E     E  E  E  E  E  E  E  E   
--L-----------0--0--------|--------0--------------3--|
--------0--------------0--|--1--1-----1--3--3--------|
-----1-----1--------1-----|--------------------------|
--------------------------|--------------------------|


  E  E  E  E  E  E  E  E     Q.     E  E  E  E  E     Q.     E  H         
-----------0-----2--------|------------------0--L--|--L------------------|
-----3--------------------|---------0--0-----------|---------0-----------|
-----------------------1--|--L---------------------|---------------------|
--------------------------|------------------------|---------------------|


  H        Q.     E     E  E  E  E  E  E  E  E     Q.     H        E   
------------------3--|-----------0-----2--------|------------------0--|
--1--------3---------|-----3--------------------|---------0-----------|
---------------------|-----------------------1--|--L------------------|
---------------------|--------------------------|---------------------|


  Q    Q    E  Q.        Q    E  E  H           W                  
--2----3----3--0------|-------0--------------|-------------------||
----------------------|--1-------1--3--------|--L----------------||
----------------------|----------------------|-------------------||
----------------------|----------------------|-------------------||




Duration Legend
---------------
W - whole
H - half
Q - quarter
E - 8th
S - 16th
T - 32nd
X - 64th
. - note dotted
|-n-|  - n-tuplets


Tablature Legend
----------------
L - tied note
x - dead note
g - grace note
(n) - ghost note
> - accentuded note
NH - natural harmonic
AH - artificial harmonic
TH - tapped harmonic
SH - semi harmonic
PH - pitch harmonic
h - hammer on
p - pull off
b - bend
br - bendRelease
pb - preBend
pbr - preBendRelease
brb - bendReleaseBend
\n/ - tremolo bar dip
\n - tremolo bar dive
-/n - tremolo bar Release up
/n\ - tremolo bar inverted dip
/n - tremolo bar return
-\n - tremolo bar Release down
S - shift slide
s - legato slide
/ -  slide into from below or out of upwards
\ -  slide into from above or out of downwards
~ - vibrato
W - wide vibrato
tr - trill
TP - tremolo picking
T - tapping
S - slap
P - pop
< - fade in
^ - brush up
v - brush down
Добавлено: 13.06.2016
Другие материалы по этой песне:
  • Аккорды и текст

Страница создана 13.06.2016
http://primanota.ru/don-ellis/go-back-home-chords.htm
Привет, Гость.
Предлагаем пройти революционный курс по гитаре.
Подарок от PrimaNota.Ru, забирай!