PrimaNota.ru - самый крупный в мире бесплатный архив песенных текстов, аккордов, табулатур и нот


Don Dokken - Nothing Left To Say - текст песни, таба, видео

Регистрация Запомнить меня
Войти через:  Facebook Google Twitter Vk Yandex Mail.ru

Don Dokken - Nothing Left To Say - текст песни, таба, видео

Печатать
Просмотров: 156
Date: Sun, 13 Apr 1997 14:35:51 -0700 (PDT)
From: Naikel 
Subject: TAB: Nothing Left to Say from Dokken
Nothing Left to Say - Dokken
From the Album "Dysfunctional"
Transccribed by:  Naikel Aparicio  -  naikel@usa.net
H - hammer-on
P - pull-off
/ - slide
^ - half bend
^^ - full bend
~  - vibrato
X - strike strings muted lightly w/left hand
E:--------------0-----------------0----------------|
B:--------3--------3-----3-----------------0-------|
G:-----2-----2--------2--------4--------3-----3----|
D:-/4-----------------------2--------4-----------4-|
A:-------------------------------------------------|
E:-------------------------------------------------|
E:--------------0-----------------0----------------|
B:--------3--------3-----3-----------------0-------|
G:-----2-----2--------2--------4--------3-----3----|
D:-/4-----------------------2--------4-----------4-|
A:-------------------------------------------------|
E:-------------------------------------------------|
E:--------------0-----------------0----------------|
B:--------3--------3-----3-----------------0-------|
G:-----2-----2--------2--------4--------3-----3----|
D:-/4-----------------------2--------4-----------4-|
A:-------------------------------------------------|
E:-------------------------------------------------|
E:--------------0-----------------0--0-------------|
B:--------3--------3-----3-----------0-------------|
G:-----2-----2--------2--------4-----3-------------|
D:-/4-----------------------2--------4-------------|
A:-------------------------------------------------|
E:-------------------------------------------------|
Verse
Добавлено: 10.04.2012
Вам также может быть интересно:
Другие материалы по этой песне:
  • Аккорды и текст

Страница создана 10.04.2012
http://primanota.ru/don-dokken/nothing-left-to-say-chords.htm
Привет, Гость.
Предлагаем пройти революционный курс по гитаре.
Подарок от PrimaNota.Ru, забирай!