PrimaNota.ru - самый крупный в мире бесплатный архив песенных текстов, аккордов, табулатур и нот


Don Carlos - Dice Cup - бас-таба, видео

Регистрация Запомнить меня
Войти через:  Facebook Google Twitter Vk Yandex Mail.ru

Don Carlos - Dice Cup - бас-таба, видео

Печатать
Просмотров: 66
-------------------------------------------------------------------------------
                             Dice cup - Don Carlos
-------------------------------------------------------------------------------
Album: Day to day living (1982)

Tabbed by: Ari
E-mail: arizonadream137@hotmail.com

Tuning: standard

Part I:

G|---1-1---1-1---3-|---1-1---1-1---3---|
D|-3-----3-----3---|-3-----3-----3-----|
A|-----------------|-----------------1-|
E|-----------------|-------------------|

Part II:

G|---1-1---1-1---3-|---1-1---1-1-----|---1-1---1-1---3---|---1-1---1-1-----|
D|-3-----3-----3---|-3-----3-----3---|-3-----3-----3-----|-3-----3-----3---|
A|-----------------|---------------1-|-----------------1-|---------------1-|
E|-----------------|-----------------|-------------------|-----------------|

Part III:

G|---1-1---1-1---3/-|---1-1---1-1---3---|
D|-3-----3-----3----|-3-----3-----3-----|
A|------------------|-----------------1-|
E|------------------|-------------------|

Part IV:

G|---1-1---1-1---3-|---1-1---1-1---3----|
D|-3-----3-----3---|-3-----3-----3------|
A|-----------------|-----------------1/-|
E|-----------------|--------------------|


Part I   X4
Part II  X1
Part I   X3
Part III X1
Part I   X1
Part IV  X1
Part I   X7
Part III X1
Part I   X3
Part III X1
===============================================================================
Добавлено: 21.12.2015
Другие материалы по этой песне:
  • Аккорды и текст

Страница создана 21.12.2015
http://primanota.ru/don-carlos/dice-cup-chords.htm
Привет, Гость.
Предлагаем пройти революционный курс по гитаре.
Подарок от PrimaNota.Ru, забирай!