PrimaNota.ru - самый крупный в мире бесплатный архив песенных текстов, аккордов, табулатур и нот


Don Broco - Keep On Pushing - бас-таба, видео

Регистрация Запомнить меня
Войти через:  Facebook Google Twitter Vk Yandex Mail.ru

Don Broco - Keep On Pushing - бас-таба, видео

Печатать
Просмотров: 172
Уроки эстрадного вокала в Санкт-Петербурге
-------------------------------------------------------------------------------
                             KEEP ON PUSHING - Don Broco
-------------------------------------------------------------------------------
Tabbed by: cesare_moon
E-mail: 

Artist: Don Broco
Album: Automatic
Year: 2015

Tuning: EADG

The studio version is played on a 5 string bass. I have tabbed this to be played on a standard 4 string. 
I hope you enjoy. It's a hard song to tab so I welcome any further suggestions/improvements :)

Intro - 00.00 - 00.05

G|---------------------------------------|
D|-6--4--6----4-6-4-6--------------------|
A|---------------------------------------|
E|---------------------------------------|

Verse - 00.05 - 00.34

G|-----------------------------------------------------------------------------------------|
D|-6--4--6----4-6-4-6----------------------6--4--6-----4-6-4-6-----------------------------|
A|-----------------------------------------------------------------------------------------|
E|---------------------4--2--4----2-4-2-4------------------------4--2--4----2-4-2-4--------|

G|------------------------------------------------------------------5-4--------------------|
D|-2/---6--4--6------10-9----------6--4-5--6--------------------4-6-----6-4----------------|
A|-----------------8------10-9----------------------------------------------3--2-----------|
E|-----------------------------------------------4--2--4~----------------------------------|

Chorus - 00.34 - 01.03

G|-----------------------------------------------------------------------------------------|
D|-----------------------------------------------------------------------------------------|
A|-7-6-5---7~--------------6-7~------------------------------------------------------------|
E|--------------2-4-2---4/7-------------2-4-2-4---4/12-4~------2-4-2-4--------2-4-2-4------|

G|-----------------------------------------------------------------------------------------|
D|-6--4--6-----4-6-4-6---------------------------------------------------------------------|
A|-----------------------------------------------------------------------------------------|
E|----------------------4--2--4----2-4-2-4-------------------------------------------------|

Verse - 01.03 - 01.22

G|--------------------6-------------------------------9-8------------------------------------|
D|-6--4--6----4-6-4-6---5-6-------------------------------9----------------------------------|
A|--------------------------6-5----------------------7---------------------------------------|
E|-------------------------------------4--2--4--------------2-4-2-4--------------------------|

G|---------------------------------------------------------9-8---------5-4-------------------|
D|------6--4--6------10-9----------6--4-5--6------------------9----4-6-----6-4---------------|
A|-----------------8------10-9---------------------------7---------------------3--2----------|
E|-----------------------------------------------4--2--4~------------------------------------|

Chorus - 01.22 - 01.42

G|-----------------------------------------------------------------------------------------|
D|-6--4--6----4-6-4-6----------------------6--4--6-----4-6-4-6-----------------------------|
A|-----------------------------------------------------------------------------------------|
E|---------------------4--2--4----2-4-2-4------------------------4--2--4----2-4-2-4--------|

Bridge (Basic structure) (Feel free to improvise here) - 01.42 - 02.19

G|-----------------------------------------------------------------------------------------|
D|-----------------------------------------------------------------------------------------|
A|-11-10-9/7-------------------------12~---------------------------------------------------|
E|----------------2-4-2-4---------------------2-4-2-4--------------------------------------|

G|-----------------------------------------------------------------------------------------|
D|-----------------------------------------------------------------------------------------|
A|-11-10-9/7-------------------------12~---------------------------------------------------|
E|----------------2-4-2-4---------------------2-4-2-4--------------------------------------|

G|-----------------------------------------------------------------------------------------|
D|-----------------------------------------------------------------------------------------|
A|---------------------------4-5-----------------------------------------------------------|
E|-4~-------2~-------4~----5-----3--2~-----4-~------2~------4~----2-4-2-4------------------|

Chorus/Outro - 02.19 - 02.58

G|-----------------------------------------------------------------------------------------|
D|-6--4--6----4-6-4-6----------------------6--4--6-----4-6-4-6-----------------------------|
A|-----------------------------------------------------------------------------------------|
E|---------------------4--2--4----2-4-2-4------------------------4--2--4----2-4-2-4--------| x2

Thank you :)

| /  slide up
| \  slide down
| h  hammer-on
| p  pull-off
| ~  vibrato
| +  harmonic
| x  Mute note
===============================================================================
Добавлено: 19.04.2016
Другие материалы по этой песне:
  • Аккорды и текст

Страница создана 19.04.2016
http://primanota.ru/don-broco/keep-on-pushing-chords.htm
Привет, Гость.
Предлагаем пройти революционный курс по гитаре.
Подарок от PrimaNota.Ru, забирай!