PrimaNota.ru - самый крупный в мире бесплатный архив песенных текстов, аккордов, табулатур и нот


Don Broco - Hold On - бас-таба, видео

Регистрация Запомнить меня
Войти через:  Facebook Google Twitter Vk Yandex Mail.ru

Don Broco - Hold On - бас-таба, видео

Печатать
Просмотров: 55
-------------------------------------------------------------------------------
                             Don Broco - Hold On
-------------------------------------------------------------------------------
Tabbed by: bridgeybass
E-mail: desmond1476@gmail.com

This isn't exactly right but it's close enough, if you have any improvements
please comment them, thanks.
Tuning: EADG

Verse:
G|-----------------9-9---9--------------------9-9---9-------------------9-9---9--------------------|
D|---------------------------10-10---10-10--------------10-10---10-10-------------10-10---10-10----|
A|---5-5-5-5----8------8--------------------8-----8-------------------8-----8----------------------|
E|-------------------------8-------8------------------8-------8-----------------8-------8----------|

G|---------------------------------------------------------------------------------|
D|-------5-5---5-5-----------------------------------------------------------------|
A|---------------------------------------------------------------------------------|
E|----3------3---------------------------------------------------------------------|

G|----------9-9---9--------------------9-9---9--------------9-9---9-------------------9-9--9-9----------|
D|--------------------10-10---10-10-----------------------------------10-10---10-10---------------------|
A|-------8------8--------------------8-----8-----5-5-5-5--8-----8-------------------8----8-----5-5-5-5--|
E|------------------8-------8---------------------------------------8-------8---------------------------|

Chorus:
(I know this isn't the exact chorus because it's more complicated than this)
G|---------------------------------------------------------------------------|
D|---------------------------------------------------------------------------|
A|-----8-88-8-8888-8-88-8-8888-0-00-0-0000-5-55-5-5555-----------------------|
E|---------------------------------------------------------------------------|

G|---------------------------------------------------------------------------|
D|---------------------------------------------------------------------------|
A|-----8-88-8-8888-8-88-8-8888-0-00-0-0000-5-55-5-5-5-5----------------------|
E|---------------------------------------------------------------------------|

Verse 2: Same as Verse 1

Chorus 2 and Bridge are the same as the first chorus, just repeat upto the bridge

Bridge:
G|------------------0-2--------------|
D|----0-2-3-0---0-2------------------|
A|-----------------------------------|
E|-1----------1----------------------| Repeat this until the final chorus

Chorus
G|------------------------------------------------------------------|
D|------------------------------------------------------------------|
A|---8-88-8-8888-8-88-8-8888-0-00-0-0000-5-55-5-5555----------------|
E|------------------------------------------------------------------| x6

On the last part of the chorus end on this:

G|---------------------------------------------------------------------------|
D|---------------------------------------------------------------------------|
A|----5-5-5-5-5-5------------------------------------------------------------|
E|---------------------------------------------------------------------------|

If you have any improvements please email me or comment thank you.


| /  slide up
| \  slide down
| h  hammer-on
| p  pull-off
| ~  vibrato
| +  harmonic
| x  Mute note
===============================================================================
Добавлено: 19.07.2015
Другие материалы по этой песне:

Страница создана 20.10.2013
http://primanota.ru/don-broco/hold-on-chords.htm
Привет, Гость.
Предлагаем пройти революционный курс по гитаре.
Подарок от PrimaNota.Ru, забирай!