PrimaNota.ru - самый крупный в мире бесплатный архив песенных текстов, аккордов, табулатур и нот


Don Broco - Fancy Dress - таба, видео

Регистрация Запомнить меня
Войти через:  Facebook Google Twitter Vk Yandex Mail.ru

Don Broco - Fancy Dress - таба, видео

Печатать
Просмотров: 108
Don Broco - Fancy Dress

Tuning D A D G B E

Im pretty sure this tab is 100% correct. Ill do a bass one aswell soon xD 
Please rate.

Intro

|-----------|-----------|----------|
|-----------|-----------|----------|
|-----------|-----------|----------| Play Twice
|---------0-|---------0-|--------0-|
|-8--10-8---|-8--10-8---|-8--------|
|-8---------|-8---------|-8--------|

Verse - Palm muted until last bar

|-----------------------|-----------------------|
|-----------------------|-----------------------|
|-10-12-10-0----0-10-12-|-10-0----0-14-0-12-0---| Play Twice
|------------12---------|------12---------------|
|-----------------------|-----------------------|
|-----------------------|-----------------------|


|-----------------------|-----------------------|
|-----------------------|-----------------------|
|-14-0-12-0-------14-0--|-14-10----10-14-0-12-0-| Play Twice
|-----------10-12-------|-------12--------------|
|-----------------------|-----------------------|
|-----------------------|-----------------------|


|-----------------------|-----------------------|
|-----------------------|-----------------------|
|-10-12-10-0----0-10-12-|-10-0----0-14-0-12-0---| Play Twice
|------------12---------|------12---------------|
|-----------------------|-----------------------|
|-----------------------|-----------------------|

|-----------------------|-----------------------|
|-----------------------|-----------------------|
|-14-0-12-0-------14-0--|-14-10----10-14-0-12-0-| Play Twice - During the 2nd
|-----------10-12-------|-------12--------------|              bar UN-palm
|-----------------------|-----------------------|              mute the notes              
|-----------------------|-----------------------|

Un-Palm Muted verse

|-----------------------|-----------------------|
|-----------------------|-----------------------|
|-10-12-10-0----0-10-12-|-10-0----0-14-0-12-0---| Play Twice
|------------12---------|------12---------------|
|-----------------------|-----------------------|
|-----------------------|-----------------------|


|-----------------------|-----------------------|
|-----------------------|-----------------------|
|-14-0-12-0-------14-0--|-14-10----10-14-0-12-0-| Play Twice
|-----------10-12-------|-------12--------------|
|-----------------------|-----------------------|
|-----------------------|-----------------------|

|-----------------------|-----------------------|
|-----------------------|-----------------------|
|-10-12-10-0----0-10-12-|-10-0----0-14-0-12-0---| Play Twice
|------------12---------|------12---------------|
|-----------------------|-----------------------|
|-----------------------|-----------------------|


|-----------------------|-----------------------|
|-----------------------|-----------------------|
|-14-0-12-0-------14-0--|-14-10----10-14-0-12-0-| Play Twice
|-----------10-12-------|-------12--------------|
|-----------------------|-----------------------|
|-----------------------|-----------------------|

Pre Chorus -

|-----------------------|-----------------------|
|-----------------------|-----------------------|
|-14/12-10----10-14-0---|-12-10----10-14-0-12---|
|----------12-----------|-------12--------------|
|-----------------------|-----------------------|
|-----------------------|-----------------------|

Chorus -

|---------------------------------|
|-3-3-3---------6-6-6-6-6-6-6-6-6-|
|-2-2-2-5-5-5-5-7-7-7-7-7-7-7-7-7-|
|-0-0-0-5-5-5-5-5-5-5-5-5-5-5-5-5-|
|-0-0-0-3-3-3-3-5-5-5-5-5-5-5-5-5-|
|-0-0-0-3-3-3-3-5-5-5-5-5-5-5-5-5-|

|---------------------------------|
|-3-3-3---------6-6-6-6-6-6-6-6---|
|-2-2-2-5-5-5-5-7-7-7-7-7-7-7-7---|
|-0-0-0-5-5-5-5-5-5-5-5-5-5-5-5-8-|
|-0-0-0-3-3-3-3-5-5-5-5-5-5-5-5-8-|
|-0-0-0-3-3-3-3-5-5-5-5-5-5-5-5-8-|

|------------------|--------------|------------|
|------------------|--------------|------------|
|------------------|----10--10--9-|-9----------| This bar changes through 
|-8-10-----------5-|-5--5---5---5-|-5--5-5--7--| second play through of
|-8-----10-12-10-5-|-5--5---5---5-|-5--5-5--7--| chorus.
|-8--------------5-|-5--5---5---5-|-5--5-5--7--| 

Repeat chorus. On the last bar replace it with this

|------------------------------------------|
|------------------------------------------|
|---------------------9--9--10-10----------|
|-8-10-----------5-5--5--5--5--5-----------|
|-8-----10-12-10-5-5--5--5--5--5-----5-3-2-|
|-8--------------5-5--5--5--5--5---3-------|

Repeat verse and chorus.

Breakdown - 

|-----------------------|---------------------|
|-----------------------|---------------------|
|-10-12-10-0------10-12-|-10-0------14-0-12-0-|
|------------12-0-------|------12-0-----------|
|-----------------------|---------------------|
|-----------------------|---------------------|

|-----------------------|---------------------|
|-----------------------|---------------------|
|-10-12-12-0------10-12-|-10-0------14-0-14-0-|
|------------12-0-------|------12-0-----------|
|-----------------------|---------------------|
|-----------------------|---------------------|

|---------------------|----------------------|
|---------------------|----------------------|
|---------------------|----------------------|
|---------------------|----------------------|
|---------------------|----------------------|
|-15-17-15-0--0-15-17-|-15-0--0--0-19-0-17-0-|

|---------------------|----------------------|
|---------------------|----------------------|
|---------------------|----------------------|
|---------------------|----------------------|
|---------------------|----------------------|
|-15-17-15-0--0-15-17-|-15-0--0--0-19-0-17-0-|

|------------------|--------------------|
|------------------|--------------------|
|------------------|--------------------|
|-7-7------0---7-7-|------0-------------|
|-8-8-10-8-----8-8-|-10-8-----12-0-10---|
|------------5-----|--------5---------0-|

|-----------|-----------|----------|
|-----------|-----------|----------|
|-----------|-----------|----------| 
|---------0-|---------0-|--------0-|
|-8--10-8---|-8--10-8---|-8--------|
|-8---------|-8---------|-8--------|

|---------------------|----------------------|
|---------------------|----------------------|
|---------------------|----------------------|
|---------------------|----------------------|
|---------------------|----------------------|
|-15-17-15-0--0-15-17-|-15-0--0--0-19-0-17-0-|

|---------------------|----------------------|
|---------------------|----------------------|
|---------------------|----------------------|
|---------------------|----------------------|
|---------------------|----------------------|
|-15-17-15-0--0-15-17-|-15-0--0--0-19-0-17-0-|

|------------------|--------------------|
|------------------|--------------------|
|------------------|--------------------|
|-7-7------0---7-7-|------0-------------|
|-8-8-10-8-----8-8-|-10-8-----12-0-10---|
|------------5-----|--------5---------0-|

|-----------|-----------|----------|
|-----------|-----------|----------|
|-----------|-----------|----------| 
|---------0-|---------0-|--------0-|
|-8--10-8---|-8--10-8---|-8--------|
|-8---------|-8---------|-8--------|

Repeat Chorus

Ending

|-----------------------|-----------------------|
|-----------------------|-----------------------|
|-14-0-12-0-------14-0--|-14-10----10-14-0-12-0-| Play Twice
|-----------10-12-------|-------12--------------|
|-----------------------|-----------------------|
|-----------------------|-----------------------|

|-------------------|----------------------------|
|-------------------|----------------------------|
|-14-14-14-12-12-12-|-14-14-14-12-12-12-10-10----|
|-------------------|-------------------------12-|
|-------------------|----------------------------|
|-------------------|----------------------------|

|-----------------------|-----------------------|
|-----------------------|-----------------------|
|-14-0-12-0-------14-0--|-14-10----10-14-0-12-0-| Play Twice
|-----------10-12-------|-------12--------------|
|-----------------------|-----------------------|
|-----------------------|-----------------------|

|-------------------|----------------------------|
|-------------------|----------------------------|
|-14-14-14-12-12-12-|-14-14-14-12-12-12-10-10----|
|-------------------|-------------------------12-|
|-------------------|----------------------------|
|-------------------|----------------------------|

Repeat chorus (AGAIN)
Добавлено: 28.09.2013
Другие материалы по этой песне:

Страница создана 25.07.2013
http://primanota.ru/don-broco/fancy-dress-chords.htm
Привет, Гость.
Предлагаем пройти революционный курс по гитаре.
Подарок от PrimaNota.Ru, забирай!