PrimaNota.ru - самый крупный в мире бесплатный архив песенных текстов, аккордов, табулатур и нот


Don Broco - Automatic - бас-таба, видео

Регистрация Запомнить меня
Войти через:  Facebook Google Twitter Vk Yandex Mail.ru

Don Broco - Automatic - бас-таба, видео

Печатать
Просмотров: 167
-------------------------------------------------------------------------------
                             Automatic - Bon Broco
-------------------------------------------------------------------------------
Tabbed by: jordy1702
E-mail: jordy1702@hotmail.co.uk

Tuning:

Intro
G|----------------|----------------|----------------|-8-----11p8-8---|
D|----------------|----------------|----------------|--------------6-|
A|----------------|----------------|----------------|----------------|
E|----------------|----------------|----------------|---4-4----------|
B|----------------|----------------|----------------|----------------|

Pre Verse
G|-8--8--8---8----|-4--4--4---4----|-6--6--6---6----|-6--6--6---6----|
D|-6--6--6---6----|-4--4--4---4----|-4--4--4---4----|-6--6--6---6----|
A|----------------|----------------|----------------|----------------|
E|----------------|----------------|----------------|----------------|
B|----------------|----------------|----------------|----------------|

G|-8--8--8---8----|-4--4--4---4----|-6--6--6---6----|-4--4--4---4----|
D|-6--6--6---6----|-4--4--4---4----|-4--4--4---4----|-2--2--2---2----|
A|----------------|----------------|----------------|----------------|
E|----------------|----------------|----------------|----------------|
B|----------------|----------------|----------------|----------------|

G|-8--8--8---8----|-4--4--4---4----|-6--6--6---6----|---6--6--6--6--6|
D|-6--6--6---6----|-4--4--4---4----|-4--4--4---4----|---6--6--6--6--6|
A|----------------|----------------|----------------|----------------|
E|----------------|----------------|----------------|----------------|
B|----------------|----------------|----------------|----------------|

G|-8--8--8---8----|-4--4--4---4----|-6--6--6---6----|-4--4--4---4----|
D|-6--6--6---6----|-4--4--4---4----|-4--4--4---4----|-2--2--2---2----|
A|----------------|----------------|----------------|----------------|
E|----------------|----------------|----------------|----------------|
B|----------------|----------------|----------------|----------------|

Verse
G|----------------|----------------|----------------|----------------|
D|----------------|----------------|----------------|----------------|
A|----------------|----------------|----------------|-4--4--4---4----|
E|-4--4--4---4----|-7--7--7---7----|-2--2--2---2----|----------------|
B|----------------|----------------|----------------|----------------|

G|----------------|----------------|----------------|----------------|
D|----------------|----------------|-----------4----|----------------|
A|----------------|----------------|----------------|-4--4--4---4----|
E|-4--4--4---4----|-7--7--7---7----|-2--2--2--------|----------------|
B|----------------|----------------|----------------|----------------|

G|----------------|----------------|----------------|----------------|
D|----------------|----------------|----------------|----------------|
A|----------------|----------------|----------------|---4--4--4--4--4|
E|-4--4--4---4----|-7--7--7---7----|-2--2--2---2----|----------------|
B|----------------|----------------|----------------|----------------|

G|----------------|----------------|----------------|----------------|
D|----------------|----------------|----------------|----------------|
A|----------------|----------------|----------------|----------------|
E|-4--4--4---4----|-7--7--7---7----|-2--2--2---2----|-0--0--0---0----|
B|----------------|----------------|----------------|----------------|

Chorus
G|----------------|----------------|----------------|----------------|
D|----------------|----------------|----------------|----------------|
A|----------------|----------------|----------------|----------------|
E|-0--0-----0-----|-0--0-----222222|-4--4-----4-----|-4--4-----777777|
B|----------------|----------------|----------------|----------------|

G|----------------|----------------|----------------|----------------|
D|----------------|----------------|----------------|----------------|
A|----------------|----------------|----------------|----------------|
E|-0--0-----0-----|-0--0-----222222|-4--4-----4-----|-4--4-----777777|
B|----------------|----------------|----------------|----------------|

G|----------------|----------------|----------------|----------------|
D|2222222222222222|22222222--------|----------------|----------------|
A|----------------|----------------|----------------|----------------|
E|----------------|------------2-2-|-4-4-4-4-4-4-4-4|-4-4-4-4--777777|
B|----------------|----------------|----------------|----------------|

Verse 2
G|-8--8--8---8----|-4--4--4---4----|-6--6--6---6----|-6--6--6---6----|
D|-6--6--6---6----|-4--4--4---4----|-4--4--4---4----|-6--6--6---6----|
A|----------------|----------------|----------------|-6--6--6---6----|
E|----------------|----------------|----------------|----------------|
B|----------------|----------------|----------------|----------------|

G|-8--8--8---8----|-4--4--4---4----|-6--6--6---6----|-6--6--6---6----|
D|-6--6--6---6----|-4--4--4---4----|-4--4--4---4----|-6--6--6---6----|
A|----------------|----------------|----------------|----------------|
E|----------------|----------------|----------------|----------------|
B|----------------|----------------|----------------|----------------|

G|-8--8--8---8----|-4--4--4---4----|-6--6--6---6----|---6--6--6--6--6|
D|-6--6--6---6----|-4--4--4---4----|-4--4--4---4----|---6--6--6--6--6|
A|----------------|----------------|----------------|----------------|
E|----------------|----------------|----------------|----------------|
B|----------------|----------------|----------------|----------------|

G|-8--8--8---8----|-4--4--4---4----|-6--6--6---6----|-4--4---------------|
D|-6--6--6---6----|-4--4--4---4----|-4--4--4---4----|-2--2/141414141414--|
A|----------------|----------------|----------------|--------------------|
E|----------------|----------------|----------------|--------------------|
B|----------------|----------------|----------------|--------------------|

Chorus 2
G|----------------|----------------|----------------|----------------|
D|----------------|----------------|----------------|----------------|
A|----------------|----------------|----------------|----------------|
E|-0--0-----0-----|-0--0-----222222|-4--4-----4-----|-4--4-----777777|
B|----------------|----------------|----------------|----------------|

G|----------------|----------------|----------------|----------------|
D|----------------|----------------|----------------|----------------|
A|----------------|----------------|----------------|----------------|
E|-0--0-----0-----|-0--0-----222222|-4--4-----4-----|-4--4-----777777|
B|----------------|----------------|----------------|----------------|

Bridge
G|----------------|----------------|----------------|----------------|
D|----------------|----------------|----------------|----------------|
A|----------------|----------------|----------------|----------------|
E|----------------|----------------|----------------|---------2-2--2-|
B|-2--2--2-2-2--2-|-5--5--5-5-5--5-|-2--2--2-2-2--2-|-0--0--0--------|

Break
G|----------------|----------------|----------------|----------------|
D|----------------|----------------|----------------|----------------|
A|----------------|----------------|----------------|----------------|
E|-0--------------|----------------|----------------|----------------|
B|----------------|----------------|----------------|----------------|

Pre Chorus
G|-4--4--4---4----|-4--4--4---6----|-8--8--8---8----|-8--8--8---11---|
D|-2--2--2---2----|-2--2--2---4----|-6--6--6---6----|-6--6--6---9 ---|
A|----------------|----------------|----------------|----------------|
E|----------------|----------------|----------------|----------------|
B|----------------|----------------|----------------|----------------|

G|-4--4--4---4----|-4--4--4---6----|-8--8--8---8----|-8--8--8---4----|
D|-4--4--4---4----|-4--4--4---4----|-6--6--6---6----|-6--6--6---2----|
A|----------------|----------------|----------------|----------------|
E|----------------|----------------|----------------|----------------|
B|----------------|----------------|----------------|----------------|

Chorus 3
G|----------------|----------------|----------------|----------------|
D|----------------|----------------|----------------|----------------|
A|----------------|----------------|----------------|----------------|
E|-0--0-----0-----|-0--0-----222222|-4--4-----4-----|-4--4-----777777|
B|----------------|----------------|----------------|----------------|

G|----------------|----------------|----------------|----------------|
D|----------------|----------------|----------------|----------------|
A|----------------|----------------|----------------|----------------|
E|-0--0-----0-----|-0--0-----222222|-4--4-----4-----|-4--4-----777777|
B|----------------|----------------|----------------|----------------|

G|----------------|----------------|----------------|----------------|
D|2222222222222222|22222222--------|----------------|----------------|
A|----------------|----------------|----------------|----------------|
E|----------------|------------2-2-|-4-4-4-4-4-4-4-4|-4-4-4-4--------|
B|----------------|----------------|----------------|----------0--0--|

G|----------------|----------------|----------------|----------------|
D|2222222222222222|22222222--------|----------------|----------------|
A|----------------|----------------|----------------|----------------|
E|----------------|------------2-2-|-4-4-4-4-4-4-4-4|-4-4-4-4--777777|
B|----------------|----------------|----------------|----------------|


| /  slide up
| \  slide down
| h  hammer-on
| p  pull-off
| ~  vibrato
| |  harmonic
| x  Mute note
===============================================================================
Добавлено: 16.10.2015
Другие материалы по этой песне:

Страница создана 16.10.2015
http://primanota.ru/don-broco/automatic-chords.htm
Привет, Гость.
Предлагаем пройти революционный курс по гитаре.
Подарок от PrimaNota.Ru, забирай!