PrimaNota.ru - самый крупный в мире бесплатный архив песенных текстов, аккордов, табулатур и нот


Don Blumenshein - Country Store - аккорды и текст, видео

Регистрация Запомнить меня
Войти через:  Facebook Google Twitter Vk Yandex Mail.ru

Don Blumenshein - Country Store - аккорды и текст, видео

Печатать
Просмотров: 54
Уроки эстрадного вокала в Санкт-Петербурге
Country Store
Don Blumenshein
Listen: https://www.youtube.com/watch?v=cw1sepNjyKM

Key: C Major
Capo: None


Intro:

 E|---------| 
 B|---------| 
 G|---------| 
 D|---------| 
 A|----0-2--|
 E|--3------|

I:
     C       C/G     C       C/G
 E|-----------------------------------|
 B|------1-------1-------1-------1----|
 G|------0-------0-------0-------0----|
 D|----2---2---2---2---2---2---2---2--|
 A|--3---------------3----------------|
 E|----------3---------------3--------|

II:
     B       B       B       B
 E|-----------------------------------|
 B|------0-------0-------0-------0----|
 G|------0-------0-------0-------0----|
 D|----0---0---0---0---0---0---0---0--|
 A|--2-------2-------2-------2--------|
 E|-----------------------------------|

III:
     F       F       F       F
 E|------1-------1-------1-------1----|
 B|------1-------1-------1-------1----|
 G|--------2-------2-------2-------2--|
 D|----3-------3-------3-------3------|
 A|-----------------------------------|
 E|--1-------1-------1-------1--------|

IV:
     G       G       G       G
 E|------3-------3-------0-------0----|
 B|------3-------3-------0-------0----|
 G|--------4-------4-------0-------0--|
 D|----5-------5-------0-------0------|
 A|-----------------------------------|
 E|--3-------3-------3-------3--------|

Interlude:

 E|----3-----1-------3-----1---0--|
 B|------0-----0-------0-----3----|
 G|--------------0----------------|
 D|--------0-------------0--------|
 A|-------------------------------|
 E|--3-------------3--------------|


Verse 1:
  C         C/G        C      C/G
I work at a country store
        C                C/G        C      C/G
I often wonder who could want any more
              B             B       B
Well it's the part of the town
              B                C    C/G      C     C/G
Where all the folks sit 'round

Verse 2:
C           C/G       C      C/G
Just around 6 AM 
           C                C/G        C      C/G
The ladies wonder where are all their men
              B            B        B       B
Well, they're huddled around in the store 
              B            B           C    C/G     C     C/G
Listening to Ralph and his talk once more

Chorus:
       F           F      F        F              C    C/G    C   C/G    
We got blue jeans, candy, pickles, three kinds of worms
         F       F     F     F         Gbarre     G
Friendly people, beer, wine, plenty to learn

Down at the store

C    C/G    C   C/G   

C    C/G    C   C/G   Interlude

C    C/G    C   C/G

Verse 3:
    C            C/G          C    C/G
I'm sure you may already know
             C         C/G        C    C/G
That this ain't no ordinary store
          B                       B           B         B
Where all tourists come wondering where they are
           B             B               C    C/G     C     C/G
They'll be thinking they want some other store

Chorus:
       F           F      F        F              C    C/G    C   C/G    
We got blue jeans, candy, pickles, three kinds of worms
         F       F     F     F         Gbarre     G
Friendly people, beer, wine, plenty to learn

Down at the store

C    C/G    C   C/G
Добавлено: 09.08.2015
Другие материалы по этой песне:
  • Аккорды и текст

Страница создана 09.08.2015
http://primanota.ru/don-blumenshein/country-store-chords.htm
Привет, Гость.
Предлагаем пройти революционный курс по гитаре.
Подарок от PrimaNota.Ru, забирай!