PrimaNota.ru - самый крупный в мире бесплатный архив песенных текстов, аккордов, табулатур и нот


Domo - All About Wendy - таба, видео

Регистрация Запомнить меня
Войти через:  Facebook Google Twitter Vk Yandex Mail.ru

Domo - All About Wendy - таба, видео

Печатать
Просмотров: 92
Уроки эстрадного вокала в Санкт-Петербурге
Hi this is Dominick French
Artist: Domo
Song: All about Wendy
This file is all my own work
my email is kingdomo42@hotmail.com


Clean Intro:
  G                                A                                   G
1:------5--------5-----5---------7---------7------7--------5--------5------5
2:---3--------3---------------3---------3----------------3--------3-----
3:0--------0--------0-----0---------0---------0------0--------0--------0
4:----------------------------------------------------------------------
5:----------------------------------------------------------------------
6:----------------------------------------------------------------------
    A
1:------7---------7------7
2:---3--------3--------3--
3:0--------0---------0----                 Play This 4X
4:--------------------------
5:--------------------------
6:--------------------------

Verse(still clean)
   G                 A                                  B
1:3----5---3h5-5---5---5---5---5---3----5h7-5h7-7---7---7---7---7p5
2:3----3---3---3---3---3---3---3---3----3---3---3---3---3---3---3---
3:0----0---0---0---0---0---0---0---0----0---0---0---0---0---0---0---Play 
This 5X
4:----------------------------------------------------------------------
5:----------------------------------------------------------------------
6:----------------------------------------------------------------------
Fill 1(slightly distorted)
1:----3-3-5---5-3-5-3h5---7-p5
2:----------------------------------
3:0--------------------------------
4:----------------------------------
5:----------------------------------
6:----------------------------------

Chorus(still distorted)
   G          A    GAG ABA
1:3---3-3-5-5p35-3h57p5
2:3---3-3-3-3---3-3---3---
3:0---0-0-0-0---0-0---0---Play this 10x
4:----------------------------
5:----------------------------
6:----------------------------

Fill 2(slightly distorted)
1:3h5p33h5p35h7p5p33h5h7
2:---------------------------------
3:---------------------------------
4:---------------------------------
5:---------------------------------
6:---------------------------------

Verse2(clean)
   G                 A                                  B
1:3----5---3h5-5---5---5---5---5---3----5h7-5h7-7---7---7---7---7p5
2:3----3---3---3---3---3---3---3---3----3---3---3---3---3---3---3---
3:0----0---0---0---0---0---0---0---0----0---0---0---0---0---0---0---Play 
This 5X
4:----------------------------------------------------------------------
5:----------------------------------------------------------------------
6:----------------------------------------------------------------------

Fill 3(slightly distorted)
1:----3-3-5---5-3-5-3h5---7-p5
2:----------------------------------
3:0--------------------------------
4:----------------------------------
5:----------------------------------
6:----------------------------------

Second Chorus(still distorted)
   G          A    GAG ABA
1:3---3-3-5-5p35-3h57p5
2:3---3-3-3-3---3-3---3---
3:0---0-0-0-0---0-0---0---Play this 10x
4:----------------------------
5:----------------------------
6:----------------------------

Fill 4(still distorted)
1:3h5p33h5p35h7p5p33h5h7
2:---------------------------------
3:---------------------------------
4:---------------------------------
5:---------------------------------
6:---------------------------------

Third Chorus(still distorted)
   G          A    GAG ABA
1:3---3-3-5-5p35-3h57p5
2:3---3-3-3-3---3-3---3---
3:0---0-0-0-0---0-0---0---Play this 10x
4:----------------------------
5:----------------------------
6:----------------------------

Solo(still distorted+ gain)
   G                                                        A
1:-----3~~--------------------------------------------------------------
2:----------------------------------------------------------------------
3:0--------0------------------------------------------------------------
4:-------------0---4h5p4-5~~~~~-5h7---7~~~~~7---------------------------
5:--------------------------------------------------------5-7~~~~~7-----
6:----------------------------------------------------------------------5-7~~~~~





   G                                                      B
1:--------------------------------------------------------------3h5---3/7~~~~~
2:--------------------------------------------------3-5~~~~~------------
3:--------------------------------------------0h2-----------------------
4:----------------------------0h2-2~~~~~--------------------------------
5:----------------------0h2---------------------------------------------
6:7p5-7p5-3~~~~~--------------------------------------------------------
   G                                                     A
1:7h9---9/10~~~~~10p97\5-3~~~~~-----------------------------------------
2:----------------------------------------------------------------------
3:----------------------------------------------------------------------
4:----------------------------------------------------------------------
5:----------------------------------------------------------------------
6:----------------------------------------------------------------------

Verse 3(clean)
G                                            B
1:-------------------------------------------------------
2:-------------------------------------------------------
3:0---2-0-2-0-2-0h2-4p2-0---2h4-2-4-4-4p2-4p2
4:--------------------------------------------------------repeat 5x
5:--------------------------------------------------------
6:--------------------------------------------------------


   G                 A                                  B
1:3----5---3h5-5---5---5---5---5---3----5h7-5h7-7---7---7---7---7p5
2:3----3---3---3---3---3---3---3---3----3---3---3---3---3---3---3---
3:0----0---0---0---0---0---0---0---0----0---0---0---0---0---0---0---Play 
This 1x
4:----------------------------------------------------------------------
5:----------------------------------------------------------------------
6:----------------------------------------------------------------------

Fourth Chorus
   G          A    GAG ABA
1:3---3-3-5-5p35-3h57p5
2:3---3-3-3-3---3-3---3---
3:0---0-0-0-0---0-0---0---Play this 10x
4:----------------------------
5:----------------------------
6:----------------------------

Fifth Chorus
   G          A    GAG ABA
1:3---3-3-5-5p35-3h57p5
2:3---3-3-3-3---3-3---3---
3:0---0-0-0-0---0-0---0---Play this 10x
4:----------------------------
5:----------------------------
6:----------------------------






Outro
1:3---3\1---1/32/3-3-----5-3-3
2:3---3\1---1/32/3-3-----------
3:0---0-----0---0---0-----------
4:--------------------------------
5:--------------------------------
6:--------------------------------
     
Добавлено: 27.08.2013
Другие материалы по этой песне:
  • Аккорды и текст

Страница создана 27.08.2013
http://primanota.ru/domo/all-about-wendy-chords.htm
Привет, Гость.
Предлагаем пройти революционный курс по гитаре.
Подарок от PrimaNota.Ru, забирай!