PrimaNota.ru - самый крупный в мире бесплатный архив песенных текстов, аккордов, табулатур и нот


Dominique A - Les Enfants Du Piree - таба, видео

Регистрация Запомнить меня
Войти через:  Facebook Google Twitter Vk Yandex Mail.ru

Dominique A - Les Enfants Du Piree - таба, видео

Печатать
Просмотров: 98
Уроки эстрадного вокала в Санкт-Петербурге
Dominique A
Album : Auguri
Auteur : J. Larue / M. Hadjdakis

			Les Enfants du Pirée 

								

intro :
				Cette mesure 2 fois
E||--------------------------|--------------------------|
B||--------------------------|--------------------------|
G||--------------------------|--------------------------|
D||--------------------------|--------------------------|
A||-----4--3--4--5--4--3--4--|-----4--3--4--5--4--3h-4--|
E||--5-----------------------|--5-----------------------|

Couplet :

       E5                                                           
E||----------------------|---------------------|
B||----------------------|---------------------|
G||*---------------------|---------------------|
D||*----------------2----|----------------2----|
A||----------2-----------|---------2-----------|
E||---0------------------|--0------------------|


      A5                                                           
E||----------------------|---------------------|
B||----------------------|---------------------|
G||----------------------|---------------------|
D||----------------------|---------------------|
A||---------7------------|---------7-----------|
E||--5-------------0-----|--5-------------0----|

Noyés de bleu sous le ciel grec 
Un bateau, deux bateaux, trois bateaux s'en vont chantant 
Griffant le ciel à coups de bec 
Un oiseau, deux oiseaux, trois oiseaux font du beau temps 
Dans les ruelles d'un coup sec 
Un volet, deux volets, trois volets claquent au vent 
En faisant une ronde avec                               A5
Un enfant, deux enfants, trois enfants dansent gaiement 

Refrain : 

E||----------------------|---------------------|---------------------|
B||----------------------|---------------------|---------------------|
G||*---------------------|---------------------|---------------------|
D||*---------------------|---------------------|----------------2----|
A||----------7-----------|---------7-----------|---------2-----------|
E||---5-------------0----|--5-------------0----|--0------------------|


                                                                  
---------------------|---------------------|---------------------|
---------------------|---------------------|---------------------|
---------------------|---------------------|---------------------|
----------------2----|---------------------|---------------------|
---------2-----------|--5------0------5----|--7-------------5----|
--0------------------|---------------------|---------5-----------|


                                            
---------------------|--------------------||
---------------------|--------------------||
---------------------|-------------------*||
---------------------|-------------------*||
---------7-----------|--7-----------------||
--5-------------0----|--5-----------------||  X2


Mon Dieu que j'aime ce port du bout du monde 
Que le soleil inonde de ses reflets dorés 
Mon Dieu que j'aime Sous leurs bonnets oranges 
Tous les visages d'anges Des enfants du Pirée 

Je rêve aussi d'avoir un jour 
Un enfant, deux enfants, trois enfants jouant comme eux 
Le long du quai flânent toujours 
Un marin, deux marins, trois marins aventureux 
De notre amour on se fera 
Un amour, dix amours, mille amours noyées de bleus 
Et nos enfants feront des gars 
Que les filles un beau jour à leur tour, rendront heureux 

Mon Dieu que j'aime ce port du bout du monde 
Que le soleil inonde de ses reflets dorés 
Mon Dieu que j'aime sous leurs bonnets oranges 
Tous les visages d'anges des enfants du Pirée

Solo Piano

E||--------------------|-----------------|---------------------------|
B||------5----7----9----|--10------------|--10--9----10--12----10----|
G||---------------------|----------------|---------------------------|
D||---------------------|----------------|---------------------------|
A||---------------------|----------------|---------------------------|
E||---------------------|----------------|---------------------------|


                                                                 
-------------------|------------------------|-------------------|
--9----------------|--9--7----9--10----9----|--7----------------|
-------------------|------------------------|-------------------|
-------------------|------------------------|-------------------|
-------------------|------------------------|-------------------|
-------------------|------------------------|-------------------|


                                              
-----------------------|--------------------||
--7--5----7--9----5----|--10----------------||
-----------------------|--------------------||
-----------------------|--------------------||
-----------------------|--------------------||
-----------------------|--------------------||    X2


Fournis par gwendal.mollo@orange.fr
Добавлено: 01.05.2012
Другие материалы по этой песне:

Страница создана 03.03.2012
http://primanota.ru/dominique-a/les-enfants-du-piree-chords.htm
Привет, Гость.
Предлагаем пройти революционный курс по гитаре.
Подарок от PrimaNota.Ru, забирай!