PrimaNota.ru - самый крупный в мире бесплатный архив песенных текстов, аккордов, табулатур и нот


Dominique A - Hear no more, Dear no more - аккорды и текст, видео

Регистрация Запомнить меня
Войти через:  Facebook Google Twitter Vk Yandex Mail.ru

Dominique A - Hear no more, Dear no more - аккорды и текст, видео

Печатать
Просмотров: 109
Уроки эстрадного вокала в Санкт-Петербурге
Hear no more, Dear no more
Dominique A
La, il va vous falloir votre plus belle voix presleyienne.
Je ne suis pas sur du second refrain et du dernier couplet...

Schema (1):
[e:---2-----2-----2-----------
B:---2-----2-----2-----------
G:---------------------------
D:-------2-----------2-2-2-2-
A:-0---0-----0-0---0---------
E:---------------------------]

Schema (2):
[e:---0-----0-----
B:---0-----0-----
G:---------------
D:-2-----------2-
A:-------2---2---
E:-0---0---------]

Schema (2+):
Utilise en place de (2) dans les autres couplets
[e:---0-----0-----0-----
B:---0-----0-----0-----
G:---------------------
D:-2-----------2-------
A:-------2---2-------2-
E:-0---0-----------0---]

Schema (R) pour Refrain:
[e:---0-----0---2--------------0-----0---1---1-
B:---0-----0---2--------------0-----0---1---1-
G:--------------------------------------------
D:-2-----2---------2-2-2-2--2-----2---3---3---
A:-----2-----0---0--------------2-------------
E:-0------------------------0-----------------

e:---0-----0-----0----------5-3-
B:---0-----0-----0----------5-3-
G:-----------------------4--6-4-]
[D:-------------2---------5--7-5-] 
Добавлено: 25.05.2014
Другие материалы по этой песне:
  • Аккорды и текст

Страница создана 25.05.2014
http://primanota.ru/dominique-a/hear-no-more-dear-no-more-chords.htm
Привет, Гость.
Предлагаем пройти революционный курс по гитаре.
Подарок от PrimaNota.Ru, забирай!